» » »

Confide, Such Great Heights Tabs (ver.1)

Artists:  A B C D E F G H I J K L M N O P Q R S T U V W X Y Z # 

Such Great Heights Tabs (ver.1)

Confide Tabs
 Rating:
3.8/5 (5 votes)
Such Great Heights lessons Tabs too difficult? Try these video lessons and learn fast
1
                  Intro                                                  4x
D|------------------------------------------------------|
A|------------------------------------------------------|
F|------------------------------------------------------|
C|--555-555-555-555-55555555--999-999-999-999-99999999--|
G|--555-555-555-555-55555555--999-999-999-999-99999999--|
C|--555-555-555-555-55555555--999-999-999-999-99999999--|
    *** *** *** *** ********  *** *** *** *** ********
D|------------------------------------------------------|
A|------------------------------------------------------|
F|------------------------------------------------------|
C|--777-777-777-777-77777777--000-000-000-000-00000000--|
G|--777-777-777-777-77777777--000-000-000-000-00000000--|
C|--777-777-777-777-77777777--000-000-000-000-00000000--|
    *** *** *** *** ********  *** *** *** *** ********
   Chorus                                                2x
D|-------------------------------------------------------------------|
A|-------------------------------------------------------------------|
F|---------------777777777777--999999999999--11-11-11-11-11-11-11-11-|
C|-555555555555--555555555555--777777777777---9--9--9--9--9--9--9--9-|
G|-555555555555--555555555555--777777777777---9--9--9--9--9--9--9--9-|
C|-555555555555------------------------------------------------------|


D|----------------------------------------------------------------|
A|----------------------------------------------------------------|
F|/17171717/14141414/1212121212121212--11-11-11-11-11-11-11-11----|
C|/-x-x-x-x/-x-x-x-x/-x-x-x-x-x-x-x-x---9--9--9--9--9--9--9--9----|
G|/15151515/12121212/1010101010101010---9--9--9--9--9--9--9--9----|
C|----------------------------------------------------------------|


D|----------------------------------------------------------------|
A|----------------------------------------------------------------|
F|--999999999999--77777777/1717171717/14141414/12121212-----------|
C|--777777777777--55555555/-x-x-x-x-x/-x-x-x-x/-x-x-x-x-----------|
G|--777777777777--55555555/1515151515/12121212/10101010-----------|
C|----------------------------------------------------------------|
  back to intro                                         2x
D|------------------------------------------------------|
A|------------------------------------------------------|
F|------------------------------------------------------|
C|--555-555-555-555-55555555--999-999-999-999-99999999--|
G|--555-555-555-555-55555555--999-999-999-999-99999999--|
C|--555-555-555-555-55555555--999-999-999-999-99999999--|
    *** *** *** *** ********  *** *** *** *** ********
D|------------------------------------------------------|
A|------------------------------------------------------|
F|------------------------------------------------------|
C|--777-777-777-777-77777777--000-000-000-000-00000000--|
G|--777-777-777-777-77777777--000-000-000-000-00000000--|
C|--777-777-777-777-77777777--000-000-000-000-00000000--|
    *** *** *** *** ********  *** *** *** *** ********
Second time threw. pause as he says "And lowest lows with the windows down" and go 
to and play this:

D|--------------------------------|
A|--------------------------------|
F|--------------------------------|
C|--000-000-000-000-00000000------|
G|--000-000-000-000-00000000------|
C|--000-000-000-000-00000000------|
    *** *** *** *** *******

 then back to  Chorus                                                2x
D|-------------------------------------------------------------------|
A|-------------------------------------------------------------------|
F|---------------777777777777--999999999999--11-11-11-11-11-11-11-11-|
C|-555555555555--555555555555--777777777777---9--9--9--9--9--9--9--9-|
G|-555555555555--555555555555--777777777777---9--9--9--9--9--9--9--9-|
C|-555555555555------------------------------------------------------|


D|----------------------------------------------------------------|
A|----------------------------------------------------------------|
F|/17171717/14141414/1212121212121212--11-11-11-11-11-11-11-11----|
C|/-x-x-x-x/-x-x-x-x/-x-x-x-x-x-x-x-x---9--9--9--9--9--9--9--9----|
G|/15151515/12121212/1010101010101010---9--9--9--9--9--9--9--9----|
C|----------------------------------------------------------------|


D|----------------------------------------------------------------|
A|----------------------------------------------------------------|
F|--999999999999--77777777/1717171717/14141414/12121212-----------|
C|--777777777777--55555555/-x-x-x-x-x/-x-x-x-x/-x-x-x-x-----------|
G|--777777777777--55555555/1515151515/12121212/10101010-----------|
C|----------------------------------------------------------------|

D|------------------------------------------------------|
A|------------------------------------------------------|
F|------------------------------------------------------|
C|--55-55-55-55-55-44-44-44-44-44-22-22-22-22-20--------|
G|--55-55-55-55-55-44-44-44-44-44-22-22-22-22-20--------|
C|--55-55-55-55-55-44-44-44-44-44-22-22-22-22-20--------|
    ** ** ** ** *  ** ** ** ** *  ** ** ** ** *

D|------------------------------------------------------|
A|------------------------------------------------------|
F|------------------------------------------------------|
C|-00-00-00-00-00-00-00-00-00-00-00-00-00-00-00---------|
G|-00-00-00-00-00-00-00-00-00-00-00-00-00-00-00---------|
C|-00-00-00-00-00-00-00-00-00-00-00-00-00-00-00---------|
   ** ** ** ** ** ** ** ** ** ** ** ** ** ** **
D|------------------------------------------------------|
A|------------------------------------------------------|
F|------------------------------------------------------|
C|-00-00-00-00-00-00-00-00-00-00-00-00-00-00-00---------|
G|-00-00-00-00-00-00-00-00-00-00-00-00-00-00-00---------|
C|-11-11-11-11-11-11-11-11-11-11-00-00-00-00-00---------|
   ** ** ** ** ** ** ** ** ** ** ** ** ** ** **
   Last time threw Chorus.
A|-------------------------------------------------------------------|
F|---------------777777777777--999999999999--11-11-11-11-11-11-11-11-|
C|-555555555555--555555555555--777777777777---9--9--9--9--9--9--9--9-|
G|-555555555555--555555555555--777777777777---9--9--9--9--9--9--9--9-|
C|-555555555555------------------------------------------------------|

D|----------------------------------------------------------------|
A|----------------------------------------------------------------|
F|/17171717/14141414/1212121212121212--11-11-11-11-11-11-11-11----|
C|/-x-x-x-x/-x-x-x-x/-x-x-x-x-x-x-x-x---9--9--9--9--9--9--9--9----|
G|/15151515/12121212/1010101010101010---9--9--9--9--9--9--9--9----|
C|----------------------------------------------------------------|
                                     Last note "12" strum and let ring
                                                 x
                                                10
D|----------------------------------------------------------|
A|----------------------------------------------------------|
F|-999999999999--77777777/1717171717/14141414/12121212~-----|
C|-777777777777--55555555/-x-x-x-x-x/-x-x-x-x/-x-x-x-x~-----|
G|-777777777777--55555555/1515151515/12121212/10101010~-----|
C|----------------------------------------------------------|
then continue with down strums. And gently fast slide /15/12/8 listen to song and you 
get all of this.
D|------------------------------|
A|------------------------------|
F|-----11~---9~---7~------------|
C|------9~---7~---5~------------|
G|------9~---7~---5~-/15/12/10~-|
C|------------------------------|
Thanks Hope this helps! if this isn't 100% it should be like 95% right. I did this all 
ear! Enjoy and God Bless Guys and Gals!
+MetalHead+ Aka Josh. lol
            
Submit corrections

comments powered by Disqus
↑ Back to top | Confide Tabs for Such Great Heights. Lyrics for acoustic guitar and electric guitar. 1 Tablatures and chords are parodies/interpretations of the original songs. You may use it for private study, scholarship, research or language learning purposes only