>
 >
If We Were A Sinking Ship

If We Were A Sinking Ship Guitar Tabs

Confide - If We Were A Sinking Ship chords, tabs, tablatures, lyrics

Guitar lessons | Add/correct | Request | Top 50 tabs Artists:  A B C D E F G H I J K L M N O P Q R S T U V W X Y Z 0-9

If We Were A Sinking Ship Guitar Tabs – Confide

CD, Sheet music, Poster

Do you like If We Were A Sinking Ship? Share with your friends now
Bass TabsTabs
If We Were A Sinking Ship by Confide,

This is a great song and hope this tab is what your lookin for (:

Tuning from low to high: C G C F A D
Like:
D|--
A|--
F|--
C|--
G|--
C|--

Guitar one is the top bar and Guitar two is the bottom bar,




Guitar 1: Clean, 0:00 - 0:08

|-------------------------------------------------|
|-------------------------------------------------|
|-9--9--9--9--9--9--9--9--9--9--9--9--9--9--9--9--|
|-10-10-10-10-10-10-10-10-10-10-10-10-10-10-10-10-| x3
|-8--8--8--8--8--8--8--8--0--0--0--0--0--0--0--0--|
|-------------------------0--0--0--0--0--0--0--0--|

Distortion Guitar: 0:09 - 0:14

|-------------------------------------------------------------------------|
|-------------------------------------------------------------------------|
|-9--9--9--9--9--9--12-12-12-9--9--9--10-10-10-9--9--9--10-10-10-9--9--9--|
|-10-10-10-10-10-10-10-10-10-10-10-10-10-10-10-10-10-10-10-10-10-10-10-10-|
|-8--8--8--8--8--8--8--8--8--8--8--8--8--8--8--8--8--8--8--8--8--8--8--8--|
|-------------------------------------------------------------------------|
|
|
|-------------------------------------------------|
|-6-6-6-6-6-6-6-6-6-6-6-6-6-6-6-6-6-6-6-6-6-6-6-6-|
|-8-8-8-8-8-8-8-8-8-8-8-8-8-8-8-8-8-8-8-8-8-8-8-8-|
|-8-8-8-8-8-8-8-8-8-8-8-8-8-8-8-8-8-8-8-8-8-8-8-8-|
|-8-8-8-8-8-8-8-8-8-8-8-8-8-8-8-8-8-8-8-8-8-8-8-8-|
|-------------------------------------------------|

|-------------------------------------------------------------------------|
|-------------------------------------------------------------------------|
|-14-14-14-14-14-14-17-17-17-14-14-14-15-15-15-14-14-14-15-15-15-14-14-14-|
|-15-15-15-15-15-15-15-15-15-15-15-15-15-15-15-15-15-15-15-15-15-15-15-15-|
|-13-13-13-13-13-13-13-13-13-13-13-13-13-13-13-13-13-13-13-13-13-13-13-13-|
|-------------------------------------------------------------------------|
|
|
|---------------------------------------------------------|
|-6-6-6-6-6-6-6-6-6-6-6-6-6-6-6-6-10-10-10-10-11-11-11-11-|
|-8-8-8-8-8-8-8-8-8-8-8-8-8-8-8-8-10-10-10-10-10-10-10-10-|
|-8-8-8-8-8-8-8-8-8-8-8-8-8-8-8-8-8--8--8--8--8--8--8--8--|
|-8-8-8-8-8-8-8-8-8-8-8-8-8-8-8-8-8--8--8--8--8--8--8--8--|
|---------------------------------8--8--8--8--8--8--8--8--|

0:15 - 0:38

|------------------------------------------------------|
|-----------6------------------------------------------|
|-----------9---9999------------------1515151517171717-|
|---8-----------xxxx------5-4---0------x-x-x-x-x-x-x-x-|
|-----7-5-------7777/10-------2-0-----1313131313131313-|
|-0-------0---0---------0-------0-0-0------------------|
| .       .   .         .         . .
|
|------------------------------------------------|
|-----------6---------------------------55555555-|
|-----------9---9-----------------------22222222-|
|---8-------------8-6\--10---------0-xx-33330000-|
|-----7-5---------------8----7-3-0-0-xx-33330000-|
|-0-------0---0---------8--0-------0-xx-33330000-|
  .       .   .            .

|------------------------------------------------------|
|-----------6------------------------------------------|
|-----------9---9999------------------1515151515151515-|
|---8-----------xxxx------5-4---0------x-x-x-x-x-x-x-x-|
|-----7-5-------7777/10-------2-0-----1313131312121212-|
|-0-------0---0---------0-------0-0-0------------------|
| .       .   .         .         . .
|
|------------------------------------------------|
|-----------6---------------------------55555555-|
|-----------9---9-----------------------22222222-|
|---8-------------8-6\--10---------0-xx-33330000-|
|-----5/7---------------8----7-3-0-0-xx-33330000-|
|-0-------0---0---------8--0-------0-xx-33330000-|
  .       .   .            .

|------------------------------------------------------|
|-----------6------------------------------------------|
|-----------9---9999------------------1515151517171717-|
|---8-----------xxxx------5-4---0------x-x-x-x-x-x-x-x-|
|-----7-5-------7777/10-------2-0-----1313131313131313-|
|-0-------0---0---------0-------0-0-0------------------|
| .       .   .         .         . .
|
|------------------------------------------------|
|-----------6---------------------------55555555-|
|-----------9---9-----------------------22222222-|
|---8-------------8-6\--10---------0-xx-33330000-|
|-----7-5---------------8----7-3-0-0-xx-33330000-|
|-0-------0---0---------8--0-------0-xx-33330000-|
  .       .   .            .

|------------------------------------------------------|
|-----------6------------------------------------------|
|-----------9---9999------------------1515151517171717-|
|---8-----------xxxx------5-4---0------x-x-x-x-x-x-x-x-|
|-----7-5-------7777/10-------2-0-----1313131313131313-|
|-0-------0---0---------0-------0-0-0------------------|
| .       .   .         .         . .
|
|------------------------------------------------|
|-----------6---------------------------55555555-|
|-----------9---9-----------------------22222222-|
|---8-------------8-6\--10---------0-xx-33330000-|
|-----7-5---------------8----7-3-0-0-xx-33330000-|
|-0-------0---0---------8--0-------0-xx-33330000-|
  .       .   .            .


0:39 - 1:02

|---------------------------------------------17-------------------------------------|
|------------------------------------------15----15----------------------------------|
|---17171717171717171515151515151515-15-14----------14-------------------------------|
|----x-x-x-x-x-x-x-x-x-x-x-x-x-x-x-x-------------------15-14/12-12h14p12----------12-|
|-0-13131313131313131313131313131313-------------------------------------15-13-12----|
|-0----------------------------------------------------------------------------------|
| .
|
|--------------------------------------------------------------------|
|---10101010101010101111111110101010-5-5-5-5-5-5-5-5-5-5-5-5-5-5-5-5-|
|---10101010101010101010101010101010-2-2-2-2-2-2-2-2-2-2-2-2-2-2-2-2-|
|---8-8-8-8-8-8-8-8-8-8-8-8-8-8-8-8--3-3-3-3-3-3-3-3-3-3-3-3-3-3-3-3-|
|-0-8-8-8-8-8-8-8-8-8-8-8-8-8-8-8-8--3-3-3-3-3-3-3-3-3-3-3-3-3-3-3-3-|
|-0-8-8-8-8-8-8-8-8-8-8-8-8-8-8-8-8--3-3-3-3-3-3-3-3-3-3-3-3-3-3-3-3-|
  .

|-------------------------------------------14---------------------------------------|
|----------------------------------------15----15------------------------------------|
|-17171717171717171515151515151515-15-14----------14-14h15p14----------14h15p14---17-|
|--x-x-x-x-x-x-x-x-x-x-x-x-x-x-x-x----------------------------15----15---------15----|
|-13131313131313131313131313131313-------------------------------17------------------|
|------------------------------------------------------------------------------------|
|
|
|------------------------------------------------------------------|
|-10101010101010101111111110101010-5-5-5-5-5-5-5-5-5-5-5-5-5-5-5-5-|
|-10101010101010101010101010101010-2-2-2-2-2-2-2-2-2-2-2-2-2-2-2-2-|
|-8-8-8-8-8-8-8-8-8-8-8-8-8-8-8-8--3-3-3-3-3-3-3-3-3-3-3-3-3-3-3-3-|
|-8-8-8-8-8-8-8-8-8-8-8-8-8-8-8-8--3-3-3-3-3-3-3-3-3-3-3-3-3-3-3-3-|
|-8-8-8-8-8-8-8-8-8-8-8-8-8-8-8-8--3-3-3-3-3-3-3-3-3-3-3-3-3-3-3-3-|
 

|-------------------------------------------18-------------------------------------|
|----------------------------------------15----15----------------------------------|
|-17171717171717171515151515151515-15-14----------14-------------------------------|
|--x-x-x-x-x-x-x-x-x-x-x-x-x-x-x-x-------------------15-14/12-12h14p12----------12-|
|-13131313131313131313131313131313-------------------------------------15-13-12----|
|----------------------------------------------------------------------------------|
|
|
|------------------------------------------------------------------|
|-10101010101010101111111110101010-5-5-5-5-5-5-5-5-5-5-5-5-5-5-5-5-|
|-10101010101010101010101010101010-2-2-2-2-2-2-2-2-2-2-2-2-2-2-2-2-|
|-8-8-8-8-8-8-8-8-8-8-8-8-8-8-8-8--3-3-3-3-3-3-3-3-3-3-3-3-3-3-3-3-|
|-8-8-8-8-8-8-8-8-8-8-8-8-8-8-8-8--3-3-3-3-3-3-3-3-3-3-3-3-3-3-3-3-|
|-8-8-8-8-8-8-8-8-8-8-8-8-8-8-8-8--3-3-3-3-3-3-3-3-3-3-3-3-3-3-3-3-|
 

|-------------------------------------------14h15p14----17-15-14-------------------|
|----------------------------------------15----------15----------15----------------|
|-17171717171717171515151515151515-15-14----------------------------14h15p14-------|
|--x-x-x-x-x-x-x-x-x-x-x-x-x-x-x-x-------------------------------------------15----|
|-13131313131313131313131313131313----------------------------------------------17-|
|----------------------------------------------------------------------------------|
|
|
|------------------------------------------------------------------|
|-10101010101010101111111110101010-5-5-5-5-5-5-5-5-5-5-5-5-5-5-5-5-|
|-10101010101010101010101010101010-2-2-2-2-2-2-2-2-2-2-2-2-2-2-2-2-|
|-8-8-8-8-8-8-8-8-8-8-8-8-8-8-8-8--3-3-3-3-3-3-3-3-3-3-3-3-3-3-3-3-|
|-8-8-8-8-8-8-8-8-8-8-8-8-8-8-8-8--3-3-3-3-3-3-3-3-3-3-3-3-3-3-3-3-|
|-8-8-8-8-8-8-8-8-8-8-8-8-8-8-8-8--3-3-3-3-3-3-3-3-3-3-3-3-3-3-3-3-|
 

1:03 - 1:08

|-------------------------------------------------------|
|-------------------------------------------------------|
|-8-8--8-8--8-8--8-8--8-8--8-8--8-8--8-8--8-8--8-8--8-8-|
|-7-7--7-7--7-7--7-7--7-7--7-7--7-7--7-7--7-7--7-7--7-7-|
|-6-6--6-6--6-6--6-6--6-6--6-6--6-6--6-6--6-6--6-6--6-6-|
|-------------------------------------------------------|
|
|
|-------------------------------------------------------|
|-------------------------------------------------------|
|-------------------------------------------------------|
|-1-1--1-1--1-1--1-1--1-1--1-1--1-1--1-1--1-1--1-1--1-1-|
|-1-1--1-1--1-1--1-1--1-1--1-1--1-1--1-1--1-1--1-1--1-1-|
|-1-1--1-1--1-1--1-1--1-1--1-1--1-1--1-1--1-1--1-1--1-1-|

Pause from 1:09 - 1:16

1:17 - 1:32

|----------------------------------------------|
|----------------------------------------------|
|----------------------------------------------|
|--0---0--00---0---0--00---0---0-00---0---0-00-|
|--0---0--00---0---0--00---0---0-00---0---0-00-|
|--0---0--00---0---0--00---0---0-00---0---0-00-|
|
|
|-0----0----0----0----0----0----|
|-5----5----5----5----5----5----|
|-2-x8-2-x8-2-x8-2-x8-2-x8-2-x8-|
|-3----0----3----0----3----0----|
|-0----0----0----0----0----0----|
|-------------------------------|

1:33 - 1:44

|----------------------------------------------------------|
|-----------6----------------------------------------------|
|-----------9---9999------------------15151515-17-17-17-17-|
|---8-----------xxxx------5-4---0------x-x-x-x--x--x--x--x-|
|-----7-5-------7777/10-------2-0-----13131313-13-13-13-13-|
|-0-------0---0---------0-------0-0-0----------------------|
| .       .   .         .         . .
|
|----------------------------------------------------|
|-----------6---------------------------5555---------|
|-----------9---9-----------------------2222---------|
|---8-------------8-6\--10---------0-xx-3333-0-0-0-0-|
|-----7-5---------------8----7-3-0-0-xx-3333-0-0-0-0-|
|-0-------0---0---------8--0-------0-xx-3333-0-0-0-0-|
  .       .   .            .                 . . . .

|------------------------------------------------------|
|-----------6------------------------------------------|
|-----------9---9999------------------1515151515151515-|
|---8-----------xxxx------5-4---0------x-x-x-x-x-x-x-x-|
|-----7-5-------7777/10-------2-0-----1313131312121212-|
|-0-------0---0---------0-------0-0-0------------------|
| .       .   .         .         . .
|
|------------------------------------------------|
|-----------6---------------------------55555555-|
|-----------9---9-----------------------22222222-|
|---8-------------8-6\--10---------0-xx-33330000-|
|-----7-5---------------8----7-3-0-0-xx-33330000-|
|-0-------0---0---------8--0-------0-xx-33330000-|
  .       .   .            .

1:45 - 1:50

|-------------------|
|-------------------|
|-------------------|
|-------------------|
|-0-0-0-0-0-0-0-0-0-|
|-0-0-0-0-0-0-0-0-0-|
| . . . . . . . . .
|
|-----------------------------------------------|
|-----------6--------------------------55555555-|
|-----------9---9----------------------22222222-|
|---8-------------8-6\-10---------0-xx-33330000-|
|-----7-5--------------8----7-3-0-0-xx-33330000-|
|-0-------0---0--------8--0-------0-xx-33330000-|
  .       .   .           .       

1:52 - 2:15

|--------------------------------------------17-------------------------------------|
|-----------------------------------------15----15----------------------------------|
|--17171717171717171515151515151515-15-14----------14-------------------------------|
|---x-x-x-x-x-x-x-x-x-x-x-x-x-x-x-x-------------------15-14/12-12h14p12----------12-|
|--13131313131313131313131313131313-------------------------------------15-13-12----|
|-----------------------------------------------------------------------------------|
|
|
|------------------------------------------------------------------|
|-10101010101010101111111110101010-5-5-5-5-5-5-5-5-5-5-5-5-5-5-5-5-|
|-10101010101010101010101010101010-2-2-2-2-2-2-2-2-2-2-2-2-2-2-2-2-|
|-8-8-8-8-8-8-8-8-8-8-8-8-8-8-8-8--3-3-3-3-3-3-3-3-3-3-3-3-3-3-3-3-|
|-8-8-8-8-8-8-8-8-8-8-8-8-8-8-8-8--3-3-3-3-3-3-3-3-3-3-3-3-3-3-3-3-|
|-8-8-8-8-8-8-8-8-8-8-8-8-8-8-8-8--3-3-3-3-3-3-3-3-3-3-3-3-3-3-3-3-|
 

|-------------------------------------------14---------------------------------------|
|----------------------------------------15----15------------------------------------|
|-17171717171717171515151515151515-15-14----------14-14h15p14----------14h15p14---17-|
|--x-x-x-x-x-x-x-x-x-x-x-x-x-x-x-x----------------------------15----15---------15----|
|-13131313131313131313131313131313-------------------------------17------------------|
|------------------------------------------------------------------------------------|
|
|
|------------------------------------------------------------------|
|-10101010101010101111111110101010-5-5-5-5-5-5-5-5-5-5-5-5-5-5-5-5-|
|-10101010101010101010101010101010-2-2-2-2-2-2-2-2-2-2-2-2-2-2-2-2-|
|-8-8-8-8-8-8-8-8-8-8-8-8-8-8-8-8--3-3-3-3-3-3-3-3-3-3-3-3-3-3-3-3-|
|-8-8-8-8-8-8-8-8-8-8-8-8-8-8-8-8--3-3-3-3-3-3-3-3-3-3-3-3-3-3-3-3-|
|-8-8-8-8-8-8-8-8-8-8-8-8-8-8-8-8--3-3-3-3-3-3-3-3-3-3-3-3-3-3-3-3-|
 

|-------------------------------------------18-------------------------------------|
|----------------------------------------15----15----------------------------------|
|-17171717171717171515151515151515-15-14----------14-------------------------------|
|--x-x-x-x-x-x-x-x-x-x-x-x-x-x-x-x-------------------15-14/12-12h14p12----------12-|
|-13131313131313131313131313131313-------------------------------------15-13-12----|
|----------------------------------------------------------------------------------|
|
|
|------------------------------------------------------------------|
|-10101010101010101111111110101010-5-5-5-5-5-5-5-5-5-5-5-5-5-5-5-5-|
|-10101010101010101010101010101010-2-2-2-2-2-2-2-2-2-2-2-2-2-2-2-2-|
|-8-8-8-8-8-8-8-8-8-8-8-8-8-8-8-8--3-3-3-3-3-3-3-3-3-3-3-3-3-3-3-3-|
|-8-8-8-8-8-8-8-8-8-8-8-8-8-8-8-8--3-3-3-3-3-3-3-3-3-3-3-3-3-3-3-3-|
|-8-8-8-8-8-8-8-8-8-8-8-8-8-8-8-8--3-3-3-3-3-3-3-3-3-3-3-3-3-3-3-3-|
 

|-------------------------------------------14h15p14----17-15-14--------------------|
|----------------------------------------15----------15----------15-----------------|
|-17171717171717171515151515151515-15-14----------------------------14h15p14----14~-|
|--x-x-x-x-x-x-x-x-x-x-x-x-x-x-x-x-------------------------------------------15-15~-|
|-13131313131313131313131313131313----------------------------------------------17~-|
|-----------------------------------------------------------------------------------|
|
|
|-------------------------------------------------------------------|
|-10101010101010101111111110101010-5-5-5-5-5-5-5-5-5-5-5-5-5-5-5-5~-|
|-10101010101010101010101010101010-2-2-2-2-2-2-2-2-2-2-2-2-2-2-2-2~-|
|-8-8-8-8-8-8-8-8-8-8-8-8-8-8-8-8--3-3-3-3-3-3-3-3-3-3-3-3-3-3-3-3~-|
|-8-8-8-8-8-8-8-8-8-8-8-8-8-8-8-8--3-3-3-3-3-3-3-3-3-3-3-3-3-3-3-3~-|
|-8-8-8-8-8-8-8-8-8-8-8-8-8-8-8-8--3-3-3-3-3-3-3-3-3-3-3-3-3-3-3-3~-|
 

Pause from 1:26 - 2:29

2:30 - 2:52

|----------------------------------------------------------|
|----------------------------------------------------------|
|----9----9----9----9-----16161616161616161717171716161616-|
|--10-10---10---10---10----x-x-x-x-x-x-x-x-x-x-x-x-x-x-x-x-|
|-8-----8----8----8----8--12121212121212121212121212121212-|
|----------------------------------------------------------|
|
|
|-----------------------------------|
|-5-5-5-5-5-5-5-5--9-9-9-9----------|
|-2-2-2-2-2-2-2-2--9-9-9-9-9-9-9-9--|
|-3-3-3-3-3-3-3-3--7-7-7-7-10101010-|
|-3-3-3-3-3-3-3-3--7-7-7-7-7-7-7-7--|
|-3-3-3-3-3-3-3-3--7-7-7-7-7-7-7-7--|


|-------------------------------------------------------------|
|----12----12----13----12-------------------------------------|
|---9--9-----9-----9-----9---12121212-9-9-9-9-9-9-9-9-9-9-9-9-|
|-10----10----10----10----10-10101010101010101010101010101010-|
|--------------------------------------------1010----10101010-|
|-------------------------------------------------------------|
|
|
|----------------------------------|
|-5-5-5-5-5-5-5-5--3-3-3-3-3-3-3-3-|
|-2-2-2-2-2-2-2-2--5-5-5-5-5-5-5-5-|
|-0-0-0-0-0-0-0-0--5-5-5-5-5-5-5-5-|
|-0-0-0-0-0-0-0-0--5-5-5-5-5-5-5-5-|
|-0-0-0-0-0-0-0-0------------------|


|----------------------------------------------------------|
|----------------------------------------------------------|
|----9----9----9----9-----16161616161616161717171716161616-|
|--10-10---10---10---10----x-x-x-x-x-x-x-x-x-x-x-x-x-x-x-x-|
|-8-----8----8----8----8--12121212121212121212121212121212-|
|----------------------------------------------------------|
|
|
|-----------------------------------|
|-5-5-5-5-5-5-5-5--9-9-9-9----------|
|-2-2-2-2-2-2-2-2--9-9-9-9-9-9-9-9--|
|-3-3-3-3-3-3-3-3--7-7-7-7-10101010-|
|-3-3-3-3-3-3-3-3--7-7-7-7-7-7-7-7--|
|-3-3-3-3-3-3-3-3--7-7-7-7-7-7-7-7--|


|-------------------------------------------------------------|
|----12----12----13----12-------------------------------------|
|---9--9-----9-----9-----9---12121212-9-9-9-9-9-9-9-9-9-9-9-9-|
|-10----10----10----10----10-10101010101010101010101010101010-|
|--------------------------------------------1010----10101010-|
|-------------------------------------------------------------|
|
|
|----------------------------------|
|-5-5-5-5-5-5-5-5--3-3-3-3-3-3-3-3-|
|-2-2-2-2-2-2-2-2--5-5-5-5-5-5-5-5-|
|-0-0-0-0-0-0-0-0--5-5-5-5-5-5-5-5-|
|-0-0-0-0-0-0-0-0--5-5-5-5-5-5-5-5-|
|-0-0-0-0-0-0-0-0------------------|


2:53 - 3:05

|------------------------------------------------------------------|
|------------------------------------------------------------------|
|-8-8--8-8--8-8--8-8--8-----------------------------------7-7--7-7-|
|-7-7--7-7--7-7--7-7--7--0-0--0-0--0-0--0-0--0-0--0-0--0--6-6--6-6-|
|-6-6--6-6--6-6--6-6--6--0-0--0-0--0-0--0-0--0-0--0-0--0--5-5--5-5-|
|------------------------0-0--0-0--0-0--0-0--0-0--0-0--0-----------|
|
|
|------------------------------------------------------------------|
|------------------------------------------------------------------|
|---------------------------------------------------------7-7--7-7-|
|-1-1--1-1--1-1--1-1--1--0-0--0-0--0-0--0-0--0-0--0-0--0--6-6--6-6-|
|-1-1--1-1--1-1--1-1--1--0-0--0-0--0-0--0-0--0-0--0-0--0--5-5--5-5-|
|-1-1--1-1--1-1--1-1--1--0-0--0-0--0-0--0-0--0-0--0-0--0-----------|


|---------------------------------|
|---------------------------------|
|------------------------8-8--8-8-|
|-0-0--0-0--0-0--0-0--0--7-7--7-7-|
|-0-0--0-0--0-0--0-0--0--6-6--6-6-|
|-0-0--0-0--0-0--0-0--0-----------|
|
|
|---------------------------------|
|---------------------------------|
|------------------------7-7--7-7-|
|-0-0--0-0--0-0--0-0--0--6-6--6-6-|
|-0-0--0-0--0-0--0-0--0--5-5--5-5-|
|-0-0--0-0--0-0--0-0--0-----------|

3:05 - 3:16

|------------------------------------------------------------------|
|-----------6------------------------------6-----------------------|
|-----------9---9--------------------------9---9-------------------|
|---8-------------8-6/---------0---8-------------8-6/---------0-00-|
|-----7-5----------------7-3-0-0-----7-5----------------7-3-0-0-00-|
|-0-------0---0--------0-------0-0-------0---0--------0-------0-00-|
| .       .   .        .         .       .   .        .
|
|---------------------------------------------------------------------|
|---------------------------------------------------------------------|
|---------------------------------------------------------------------|
|-0-0--0-0--0-0--0-0--0--0-0--0-0--0-0--0-0--0-0--0-0--0--0-0--0-0--0-|
|-0-0--0-0--0-0--0-0--0--0-0--0-0--0-0--0-0--0-0--0-0--0--0-0--0-0--0-|
|-0-0--0-0--0-0--0-0--0--0-0--0-0--0-0--0-0--0-0--0-0--0--0-0--0-0--0-|
  . .  . .  . .  . .  .            . .  . .  . .  . .  .





Comments


Popular Confide tabs & chords
Can't See The Forest For The Trees Bass Tabs
City To City Bass Tabs
Holes Bass Tabs
If We Were A Sinking Ship Bass Tabs
Zeal Bass Tabs
This I Believe Chords
Can't See The Forest For The Trees 1 Tabs
In Reply Tabs
Such Great Heights 2 Tabs
This I Believe Ukulele


Song lyrics



↑ Back to top | Tablatures and chords are parodies/interpretations of the original songs. You may use it for private study, scholarship, research or language learning purposes only
© 2014 AZChords.com Contact us | Privacy policy | DMCA | Add/correct tabs | Request tabs | Top 50 tabs