» » »

If We Were A Sinking Ship Bass tabs (ver.1)

Artists:  A B C D E F G H I J K L M N O P Q R S T U V W X Y Z # 

If We Were A Sinking Ship Bass tabs (ver.1)

Confide
Rating:
2/5 (2 votes)

Hard to play? Try these video lessons and learn fast.
                Intro

F|---------------------------------------------------------------|
C|---------------------------------------------------------------|
G|---------------------------------------------------------------|
C|-8-8-8-8-8-8-8-8-8-8-8-8-8-8-8-8-8-8-8-8-8-8-8-8-8-8-8-8-8-8---|

Verse

F|---------------------------------------------------------------|
C|---------------------------------------------------------------|
G|---------------------------------------------------------------| X4
C|-0-8-8-8-8-10-0-8-8-8-8-8-0-7-0-8-8-0-0~~~~3-3-3-3-0-0-0-0-----|

Chorus

F|-----------------------------------------------------------------------------|
C|-----------------------------------------------------------------------------|
G|-----------------12-12-12-12-10-10-10-10-------------------------------------|
C|-8-8-8-8-8-8-8-8-------------------------15-15-15-14-14-14-10-10-10-12-12-12-|

F|---------------------------------------------------------------|
C|---------------------------------------------------------------|
G|---------------------------------------------------------------|X2
C|-8-8-8-8-8-8-8-8-8-8-8-8-8-8-8-8-3-3-3-3-3-3-3-3-3-3-3-3-------|

Transition

F|---------------------------------------------------------------|
C|---------------------------------------------------------------|
G|---------------------------------------------------------------|
C|-1-1--1-1--1-1--1-1--1-1--1-1--1-1--1-1--1-1--1-1--1-1--1-1----|

Breakdown

F|---------------------------------------------------------------|
C|---------------------------------------------------------------|
G|---------------------------------------------------------------|
C|-0------0-0-0--0------0-0-0--0------0-0-0--0------0-0-0--------|

Verse 2

F|---------------------------------------------------------------|
C|---------------------------------------------------------------|
G|---------------------------------------------------------------| X2
C|-0-8-8-8-8-10-0-8-8-8-8-8-0-7-0-8-8-0-0~~~~3-3-3-3-0-0-0-0-----|

they wont stop buying your smile....
F|---------------------------------------------------------------|
C|---------------------------------------------------------------|
G|---------------------------------------------------------------|
C|-0-0-0-0-0-0-0-0-0-0-0-0--0--0--0------------------------------|

Chorus

F|-----------------------------------------------------------------------------|
C|-----------------------------------------------------------------------------|
G|-----------------12-12-12-12-10-10-10-10-------------------------------------|
C|-8-8-8-8-8-8-8-8-------------------------15-15-15-14-14-14-10-10-10-12-12-12-|

F|---------------------------------------------------------------|
C|---------------------------------------------------------------|
G|---------------------------------------------------------------|X2
C|-8-8-8-8-8-8-8-8-8-8-8-8-8-8-8-8-3-3-3-3-3-3-3-3-3-3-3-3-------|

Bridge

"your eyes can wait.. what do they want to see?..."
F|-----------------------------------------------------------------|
C|-----------------------------------------------------------------|
G|-----------------------------------------------------------------|X2
C|-3-3-3-3-3-3-3-3-7-7-7-7-7-7-7-7-0-0-0-0-0-0-0-0-5-5-5-5-7-7-7-7-|

Buildup

F|---------------------------------------------------------------|
C|---------------------------------------------------------------|
G|---------------------------------------------------------------|
C|-1-1--1-1--1-1--1-1--1-----------------------------------------|

Breakdown

F|---------------------------------------------------------------|
C|---------------------------------------------------------------|
G|---------------------------------------------------------------|
C|-0-0--0-0--0-0--0-0--0--12-12--12-12---------------------------|
            
Hard to play? Try these video lessons and learn fast. | Correct




comments powered by Disqus
↑ Back to top | Tablatures and chords are parodies/interpretations of the original songs. You may use it for private study, scholarship, research or language learning purposes only