» » »

Ride On Ride Out Tabs (ver.1)

Artists:  A B C D E F G H I J K L M N O P Q R S T U V W X Y Z # 

Ride On Ride Out Tabs (ver.1)

Colt Ford
Rating:
0/5 (0 votes)

Hard to play? Try these video lessons and learn fast.
                cool song fun to play.
key :
b - bend
x - palm mute
intro: play 3x
e---------------------------------------------------------------|
B---------------------------------------------------------------|
G---------------------------------------------------------------|
D---------------------------------------------------------------|
A---------------------------------------------------------------|
E-12-12--12-12-12-12-12-12---12-12-12-11-12-12b-----------------|
         x  x  x  x  x  x

then it goes into the chorus which is just:
e-----------------------------------------------------------------|
B-----------------------------------------------------------------|
G-----------------------------------------------------------------|
D-----------------------------------------------------------------|
A-4-4--4-4-4-4-4-4--4-4-5b----------------------------------------|
E-2-2--2-2-2-2-2-2--2-2-3b----------------------------------------|
       x x x x x x

play it 4 or so times.

Verse 1 :
Just play the intro but dont start until right after he says , 'big black truck with a 
inch lift'. play it 4x then play the chorus part from above once . start playing it when 
,. "fight the power , kill and devour"

Chorus :
It is different this time. you play this 4 times :
e---------------------------------------------------------------|
B---------------------------------------------------------------|
G---------------------------------------------------------------|
D---------------------------------------------------------------|
A---------------------------------------------------------------|
E-12-12--12-12-12-12-12-12---12-12-12-11-12-12b-----------------|
         x  x  x  x  x  x

Verse 2
dont play anythign until he says , "he came from georgia" where you play
e---------------------------------------------------------------|
B---------------------------------------------------------------|
G---------------------------------------------------------------|
D---------------------------------------------------------------|
A---------------------------------------------------------------|
E-12-12--12-12-12-12-12-12---12-12-12-11-12-12b-----------------|
         x  x  x  x  x  x

4 times then play :
e-----------------------------------------------------------------|
B-----------------------------------------------------------------|
G-----------------------------------------------------------------|
D-----------------------------------------------------------------|
A-4-4--4-4-4-4-4-4--4-4-5b----------------------------------------|
E-2-2--2-2-2-2-2-2--2-2-3b----------------------------------------|
       x x x x x x
2 times then go into the chorus which is : (you play it 4 times)
e----------------------------------------------------------------|
B----------------------------------------------------------------|
G----------------------------------------------------------------|
D----------------------------------------------------------------|
A-4-4--4-4-4-4-4-4--4-4-5b---------------------------------------|
E-2-2--2-2-2-2-2-2--2-2-3b---------------------------------------|
       x x x x x x

then there is the solo which i didnt tab.
            
Hard to play? Try these video lessons and learn fast. | Correct




comments powered by Disqus
↑ Back to top | Tablatures and chords are parodies/interpretations of the original songs. You may use it for private study, scholarship, research or language learning purposes only