» » »

Waffle House Tabs (ver.1)

Artists:  A B C D E F G H I J K L M N O P Q R S T U V W X Y Z # 

Waffle House Tabs (ver.1)

Colt Ford
Rating:
5/5 (1 vote)

Hard to play? Try these video lessons and learn fast.
                
  I figured this out by ear so I hope it's wright.
  Tuning: standard EADGBe

  e|------------------------------------------|
  B|--------15-----15------15------15------15-|
  G|-----14------14-----14------14------14----|
  D|--12------12-----12------12------12-------|
  A|------------------------------------------|
  E|------------------------------------------|

  e|--------------------------------------------|
  B|--------13------13------13------13-------13-|
  G|-----12------12------12------12-------12----|
  D|--10------10------10------10-------10-------|
  A|--------------------------------------------|
  E|--------------------------------------------|
  
  e|----------------------------|
  B|------8----8----8----8----8-|   Repeat through the whole song.
  G|----7----7----7----7----7---|
  D|--5----5----5----5----5-----|
  A|----------------------------|
  E|----------------------------|
            
Hard to play? Try these video lessons and learn fast. | Correct




comments powered by Disqus
↑ Back to top | Tablatures and chords are parodies/interpretations of the original songs. You may use it for private study, scholarship, research or language learning purposes only