>
 >
Royal Blue

Royal Blue Guitar Tabs

Cold War Kids - Royal Blue chords, tabs, tablatures, lyrics

Guitar lessons | Add/correct | Request | Top 50 tabs Artists:  A B C D E F G H I J K L M N O P Q R S T U V W X Y Z 0-9

Royal Blue Guitar Tabs – Cold War Kids

CD, Sheet music, Poster

Do you like Royal Blue? Share with your friends now
Tabs
Band: Cold War Kids


Vers:

Why would I make that face? oh, why would I?
Why would I test my faith? oh, why would I?
Oh, whoa, I see that rain cloud coming right for me



Guitar comes in with a funky G#m and its basically just

e|--4--|
B|--4--|
G|--4--|
D|-----|
A|-----|
E|-----|

G#m
Why would I say my name? oh why would I?
When I'm so far away? oh why would I?
   F#                 E
Oh whoaa I guess I've always been a bit of a fighter



Chorus:

Chorus-Riff:

     G#m          B    E            B       E            B    F#  
e|---4--4--4--4---7----7--7--7--7---7---|---7--7--7--7---7----2--2--2--2---2---|
B|---4--4--4--4---7----9--9--9--9---7---|---9--9--9--9---7----2--2--2--2---2---|
G|---4--4--4--4---8----9--9--9--9---8---|---9--9--9--9---8----3--3--3--3---3---|
D|---6--6--6--6---9----9--9--9--9---9---|---9--9--9--9---9----4--4--4--4---4---|
A|---6--6--6--6---9----7--7--7--7---9---|---7--7--7--7---9----4--4--4--4---4---|
E|---4--4--4--4---7-----------------7---|----------------7----2--2--2--2---2---|





Vers:

G#m
Why would I stick around? oh why would I?
Why would I get burned out? oh why would I?
    F#              E                         G#m
Oh, whoa for me I'm always waiting in shadows
    F#              E                        B     F#
Oh, whoa for me I'm always looking for a way out



Chorus

Chorus-Riff:


     G#m          B    E            B       E            B    F#  
e|---4--4--4--4---7----7--7--7--7---7---|---7--7--7--7---7----2--2--2--2---2---|
B|---4--4--4--4---7----9--9--9--9---7---|---9--9--9--9---7----2--2--2--2---2---|
G|---4--4--4--4---8----9--9--9--9---8---|---9--9--9--9---8----3--3--3--3---3---|
D|---6--6--6--6---9----9--9--9--9---9---|---9--9--9--9---9----4--4--4--4---4---|
A|---6--6--6--6---9----7--7--7--7---9---|---7--7--7--7---9----4--4--4--4---4---|
E|---4--4--4--4---7-----------------7---|----------------7----2--2--2--2---2---|





Solo: Guitar 1 continues playing the chorus


Guitar 2:

e|-------------------------7--7h9p7------7--7h11p7----14-14-14-14-14--11--9-|
B|------7--------7----7h9-------------7h9-----------------------------------|
G|--6h8---6--6h8------------------------------------------------------------|
D|--------------------------------------------------------------------------|
A|--------------------------------------------------------------------------|
E|--------------------------------------------------------------------------|

play this part twice





Hey .. yeah yeah yeah yeah


B  F#




Chorus:

Chorus-Riff:


     G#m          B    E            B       E            B    F#  
e|---4--4--4--4---7----7--7--7--7---7---|---7--7--7--7---7----2--2--2--2---2---|
B|---4--4--4--4---7----9--9--9--9---7---|---9--9--9--9---7----2--2--2--2---2---|
G|---4--4--4--4---8----9--9--9--9---8---|---9--9--9--9---8----3--3--3--3---3---|
D|---6--6--6--6---9----9--9--9--9---9---|---9--9--9--9---9----4--4--4--4---4---|
A|---6--6--6--6---9----7--7--7--7---9---|---7--7--7--7---9----4--4--4--4---4---|
E|---4--4--4--4---7-----------------7---|----------------7----2--2--2--2---2---|


Guitar 2:

e|--14-14-14--12--11~------16-16-16--12--14~-----14-14-14--12--11~---9---9---9----11---9~-----|
B|--12-12-12--12--12~------12-12-12--12--12~-----12-12-12--12--12~---11--11--11---12---11~----|
G|--------------------------------------------------------------------------------------------|
D|--------------------------------------------------------------------------------------------|
A|--------------------------------------------------------------------------------------------|
E|--------------------------------------------------------------------------------------------|


End for Guitar 2:

e|--14-14-14--12--11~------16-16-16--12--14~-----14-14-14--12--11~---9---9---9----11---9---7--6~-|
B|--12-12-12--12--12~------12-12-12--12--12~-----12-12-12--12--12~---11--11--11---12---11--9--7~-|
G|-----------------------------------------------------------------------------------------------|
D|-----------------------------------------------------------------------------------------------|
A|-----------------------------------------------------------------------------------------------|
E|-----------------------------------------------------------------------------------------------|

End Guitar on F#





Comments


Popular Cold War Kids tabs & chords
Bottled Affection Chords
Golden Gate Jumpers Intro Chords
Hospital Beds Chords
Out Of The Wilderness Chords
We Used To Vacation 2 Chords
Every Valley Is Not A Lake Tabs
Hospital Beds 2 Tabs
Red Wine Success Intro Tabs
Expensive Tastes Ukulele
Ive Seen Enough Ukulele


Song lyrics



↑ Back to top | Tablatures and chords are parodies/interpretations of the original songs. You may use it for private study, scholarship, research or language learning purposes only
© 2014 AZChords.com Contact us | Privacy policy | DMCA | Add/correct tabs | Request tabs | Top 50 tabs