» » »

Cold War Kids, God Make Up Your Mind Tabs (ver.1)

Artists:  A B C D E F G H I J K L M N O P Q R S T U V W X Y Z # 

God Make Up Your Mind Tabs (ver.1)

Cold War Kids Tabs
 Rating:
4/5 (4 votes)
God Make Up Your Mind lessons Tabs too difficult? Try these video lessons and learn fast
                Standard Tuning - EBGDAE

The lower notes in the intro are actually the bass notes. I just added it in as a guitar 
You'll hear some of them change and slide down gradually throughout the song, but 
transcribed as a guitar part to fit the song.

(Verse/Chorus)

E------8---------8--------------------|
B------10--------10--------7--------8-|
G--------------------------7--------9-|
D--7-7-------7-7----------------------|
A--------------------4/5-5----5/7-7---|
E-------------------------------------| (x13)

The next part is a pre-bridge and bridge that plays against the piano. The lower parts 
again the bass transcribed to guitar.

(Pre-Bridge)

E--------6-6------6-6------6-6------6-6-|
B--------6-7------7-6------7-6------7-6-|
G--------7-7------7-7------7-7------7-7-|
D---------------------------------------|
A---------------------------------------|
E--1/6-6----1/6-6----1/6-6----1/6-6-----| (x1)

(Bridge)

E-------x------x-x-|
B-------9~-----9-4-|
G-------7------7-5-|
D------------------|
A------------------|
E-1/6-6---1/6-6----| (x6)

(Repeat Verse/Chorus)
(Repeat Pre-Bridge)
(Repeat Bridge)

This next part is for lack of a better term, the post bridge. It's the part before 
starts screaming at (3:52)

(Post-Bridge?)

E--------------|
B--------------|
G--------------|
D--------------|
A--------------|
E-66-6--7-77-7-| (x8)

then

E------------------|
B-11-9~-6-9--6-9-6-|
G------------------|
D------------------|
A------------------|
E------------------| (x4)

(Repeat Verse/Chorus to the end)

It's my first tab, so I hope you correct any mistakes I may have made! The Cold War Kids 
amazing and I'm looking to do more guitar tabs.

Peace,
Floyd
            
Submit corrections

comments powered by Disqus
↑ Back to top | Cold War Kids Tabs for God Make Up Your Mind. Lyrics for acoustic guitar and electric guitar. Tablatures and chords are parodies/interpretations of the original songs. You may use it for private study, scholarship, research or language learning purposes only