» » »

Cold War Kids, Every Valley Is Not A Lake Tabs (ver.1)

Artists:  A B C D E F G H I J K L M N O P Q R S T U V W X Y Z # 

Every Valley Is Not A Lake Tabs (ver.1)

Cold War Kids Tabs
 Rating:
4/5 (4 votes)
Every Valley Is Not A Lake lessons Tabs too difficult? Try these video lessons and learn fast
                -----------------------------------------------------------------------------
-----------------------------------------------------------------------------

Great song, tabbed from piano. This is just the verse but its a start since I 
haven't seen any other tabs on the web yet.

Tuning: Standard


INTRO

                      F   Cm  F
e|--------------------8---8---8---|
B|--------------------10--8---10--|
G|--------------------10--8---10--|  x2
D|--------------------10--10--10--| 
A|---------------8----8---10--8---|
E|--8--8--11--8-------x---8---x---|

VERSE

                      F   Cm  F
e|-------------------8---8---8---|    
B|-------------------10--8---10--|    
G|-------------------10--8---10--|  x4
D|-------------------10--10--10--|    
A|--------------8----8---10--8---|    
E|----8--11--8-------x---8---x---|    

                      Bb  Fm  Bb
e|--------------------6---8---6--|    
B|--------------------6---9---6--|    
G|--------------------7---10--7--|  x2
D|------------8-------8---10--8--|    
A|--8--11--8----------8---8---8--|    
E|--------------------6---x---6--|    
                      F   Cm  F
e|-------------------8---8---8---|    
B|-------------------10--8---10--|    
G|-------------------10--8---10--|  x2
D|-------------------10--10--10--|    
A|--------------8----8---10--8---|    
E|----8--11--8-------x---8---x---|    


| /  slide up
| \  slide down
| h  hammer-on
| p  pull-off
| ~  vibrato
| +  harmonic
| x  Mute note
===============================================================================
            
Submit corrections

comments powered by Disqus
↑ Back to top | Cold War Kids Tabs for Every Valley Is Not A Lake. Lyrics for acoustic guitar and electric guitar. Tablatures and chords are parodies/interpretations of the original songs. You may use it for private study, scholarship, research or language learning purposes only