» » »

Coldplay, Parachutes Tabs (ver.1)

Artists:  A B C D E F G H I J K L M N O P Q R S T U V W X Y Z # 

Parachutes Tabs (ver.1)

Coldplay Tabs
Rating:
0/5 (0 votes)
Parachutes lessons Tabs too difficult? Try these video lessons and learn fast
                PARACHUTES

           B      G#m      B     G#m     Fm7     Fm7      E
E ------------------------------------------------------------------
B ------------------------------------------------------------------
G -------8--8-----4-4-----8-8----4-4-----2-2-----2-2-----1-1--------
D --------9--------1-------9------1-----------------------2---------
A ----------------------------------------4-------4-----------------
E ----7-------234-----467----234-----432-----4-2-----2-0-----2-0----



           B      G#m      B     G#m     Fm7     Fm7      E
E ------------------------------------------------------------------
B ------------------------------------------------------------------
G -------8-8-----4-4-----8-8----4-4-----2-2-----2-2-----1-1---------
D --------7-------1-------9------1-----------------------2----------
A ---------------------------------------4-------4------------------
E 2---7------234-----467----234-----432-----4-2-----2-0-----2-0-----



           B      G#m      B     G#m     Fm7     Fm7      E
E ------------------------------------------------------------------
B ------------------------------------------------------------------
G -------8-8-----4-4-----8-8----4-4-----2-2-----2-2-----1-1---------
D --------7-------1-------9------1-----------------------2----------
A ---------------------------------------4-------4------------------
E 2---7------234-----467----234-----432-----4-2-----2-0-----2-0-----


Lyrics

in a haze, a stormy haze
i'll be round, i'll be loving you 
always
always

here i am, and i'll take my time
here i am, and i'll wait in line
always
always
            

comments powered by Disqus
↑ Back to top | Coldplay Tabs for Parachutes. Lyrics for acoustic guitar and electric guitar. Tablatures and chords are parodies/interpretations of the original songs. You may use it for private study, scholarship, research or language learning purposes only