» » »

Cold, Delivering The Saint Tabs (ver.1)

Artists:  A B C D E F G H I J K L M N O P Q R S T U V W X Y Z # 

Delivering The Saint Tabs (ver.1)

Cold Tabs
Rating:
5/5 (1 vote)
Hard to play? Try these video lessons and learn fast.
                
Tuning: (low to high) C F Bb Eb G C



Verse
C |----------0----------------0----------------0----------------0-------|
G |-------13---13----------13---13----------15---15----------15---15----|
Eb|----10---------10----10---------10----12---------12----12---------12-|
Bb|-12---------------12---------------14---------------14---------------|
F |---------------------------------------------------------------------|
C |---------------------------------------------------------------------|
                                                                          5x
C |-----------------------------------------------------------------|
G |---------10--------------10--------------10--------------10------|
Eb|-------0----0----------0----0----------0----0----------0----0----|
Bb|----12--------12----12--------12----11--------11----11--------11-|
F |-13--------------13--------------12--------------12--------------|
C |-----------------------------------------------------------------|


Chorus
C |-------------------------------------------------|
G |-------------------------------------------------|
Eb|-------------------------------------------------|
Bb|-8-----------8-----8-----3-----------3-----3-----|
F |-8-----------8-----8-----3-----------3-----3-----|
C |-6-----------6-----6-----1-----------1-----1-----|
                                                      2x
C |-------------------------------------------------|
G |-------------------------------------------------|
Eb|-5-----------5-----5-----------------------------|
Bb|-5-----------5-----5-----5-----------5-----5-----|
F |-3-----------3-----3-----5-----------5-----5-----|
C |-------------------------3-----------3-----3-----|


Verse
Chorus


Bridge
C |---------0-------8----------------------0-------8-------------|
G |------11---11--------11--------------11---11--------11--------|
Eb|---10---------10----------10------10---------10----------10---|
Bb|-8------------------------------------------------------------|
F |-------------------------------10-----------------------------|
C |--------------------------------------------------------------|

C |---------0-------6---------------------0-------6--------8---|
G |------10---10--------10-------------10---10--------11-------|
Eb|---10---------10----------10-----10---------10--------------|
Bb|-0-----------------------------0----------------------------|
F |------------------------------------------------------------|
C |------------------------------------------------------------|

C |---------0-------8----------------------0-------8-------------|
G |------11---11--------11--------------11---11--------11--------|
Eb|---10---------10----------10------10---------10----------10---|
Bb|-8------------------------------------------------------------|
F |-------------------------------10-----------------------------|
C |--------------------------------------------------------------|

C |-5-5-5-5---x-5-5-5-5---x-5-5-5-5---x-5---5---5---|
G |-6-6-6-6---x-6-6-6-6---x-6-6-6-6---x-6---6---6---|
Eb|-7-7-7-7---x-7-7-7-7---x-7-7-7-7---x-7---7---7---|
Bb|-7-7-7-7---x-7-7-7-7---x-7-7-7-7---x-7---7---7---|
F |-5-5-5-5---x-5-5-5-5---x-5-5-5-5---x-5---5---5---|
C |-------------------------------------------------|


Chorus


Ending
C |----------0----------------0----------------0----------------0-------|
G |-------13---13----------13---13----------15---15----------15---15----|
Eb|----10---------10----10---------10----12---------12----12---------12-|
Bb|-12---------------12---------------14---------------14---------------|
F |---------------------------------------------------------------------|
C |---------------------------------------------------------------------|

C |-----------------------------------------------------------------5-------|
G |---------10--------------10--------------10--------------10------6-------|
Eb|-------0----0----------0----0----------0----0----------0----0----7-------|
Bb|----12--------12----12--------12----11--------11----11--------11-7-------|
F |-13--------------13--------------12--------------12--------------5-------|
C |-------------------------------------------------------------------------|


| /  slide up
| \  slide down
| b  bend
| h  hammer-on
| p  pull-off
| v  vibrato
| x  mute string
| .  palm mute
===============================================================================
            

comments powered by Disqus
↑ Back to top | Cold Tabs for Delivering The Saint. Lyrics for acoustic guitar and electric guitar. Tablatures and chords are parodies/interpretations of the original songs. You may use it for private study, scholarship, research or language learning purposes only