» » »

Coconut Records, Wires Chords (ver.2)

Artists:  A B C D E F G H I J K L M N O P Q R S T U V W X Y Z # 

Wires Chords (ver.2)

Coconut Records Tabs
 Rating:
4/5 (4 votes)
Wires lessons Tabs too difficult? Try these video lessons and learn fast
                Capo 1-all notes relative to capo

Intro

G
------------------------------------------|
------------------------------------------|
------------------------------------------|
------------------------------------------|
--5-5-7-7-5-5-7-7--x7---7-7-7-7-7-7-7-----|
--3-3-3-3-3-3-3-3-------3-3-3-3-3-3-3-----|

Verse 1(During the g chord)

------------------------------------------|
------------------------------------------|
------------------------------------------|
------------------------------------------|
--5-5-7-7-5-5-7-7--x2---7-7-7-7-7-7-7-----|
--3-3-3-3-3-3-3-3-------3-3-3-3-3-3-3-----|

------------------------------------------|
------------------------------------------|
------------------------------------------|
------------------------------------------|
--5-5-7-7-5-5-7-7--x2---7-7-7-7-----------|
--3-3-3-3-3-3-3-3-------3-3-3-3-----------|

G
Had a lot of things to say
G
Had a lot of points to make

N.C.                        C    G        D   Em
Put me down on walk sweet take before you go away
C         G        D        Em
Close the door in case you stay
    C          G            D      Em    
And I can't believe it's already tired
C         Am   D       G   
Oh go and cut all my wires


------------------------------------------|
------------------------------------------|
------------------------------------------|
------------------------------------------|
--5-5-7-7-5-5-7-7--x2---7-7-7-7-7-7-7-----|
--3-3-3-3-3-3-3-3-------3-3-3-3-3-3-3-----|

Verse 2(during g chord)

------------------------------------------|
------------------------------------------|
------------------------------------------|
------------------------------------------| x2
--5-5-7-7-5-5-7-7--x2---7-7-7-7-7-7-7-----|
--3-3-3-3-3-3-3-3-------3-3-3-3-3-3-3-----|

------------------------------------------|
------------------------------------------|
------------------------------------------|
------------------------------------------|
--5-5-7-7-5-5-7-7--x2---------------------|
--3-3-3-3-3-3-3-3-------------------------|

G
Little bit of this is good
G
You always said it would
G               Em
Waits to be overheard
Em                      C    G         D   Em
Quote yourself word for word before you go away
C    G         D       Em 
Close the door in case you stay
    C       G            D       Em
And I can't believe it's already tired
C         Am   D       G     Em
Oh go and cut all my wires

Verse 3

C  G     D     Em
Na na na na na na na
C  G     D       Em
Na na na in case you stay
    C       G            D       Em
And I can't believe it's already tired
C         Am   D       G
Oh go and cut all my wires
G
All my wires
G
All my wires
G
All my wires
            
Submit corrections

comments powered by Disqus
↑ Back to top | Coconut Records Chords for Wires. Lyrics for acoustic guitar and electric guitar. Tablatures and chords are parodies/interpretations of the original songs. You may use it for private study, scholarship, research or language learning purposes only