>
 >
Microphone

Microphone Chords

Coconut Records - Microphone chords, tabs, tablatures, lyrics

Guitar lessons | Add/correct | Request | Top 50 tabs Artists:  A B C D E F G H I J K L M N O P Q R S T U V W X Y Z 0-9

Microphone Chords – Coconut Records

CD, Sheet music, Poster

Do you like Microphone? Share with your friends now
ChordsChords v2Ukulele
#------------------------------------------------------------------------------##


01.18.09


CAPO 2
TUNING: (E A D G B E)



CHORD DIAGRAM
-------------------------------------------------------------------------

 F#m             A                Dsus2           E   
                                  
 2 4 4 2 2 2     x 0 2 2 2 0      x x 0 2 3 0     0 2 2 1 0 0         


 Bsus2            Bm                D/B            A/5-
                                 
 x 2 4 4 2 2      x 2 4 4 3 2      x 2 4 2 3 2     x 6 7 8 x x


 Ebm              
                                  
 x x 4 3 4 x       

-------------------------------------------------------------------------


F#m / A / Dsus2 / Dsus2
F#m / A / Dsus2 / Dsus2
E   / A / Dsus2 / Dsus2
F#m / A / Bsus2



        
E||------------------|------------------||
B||------------------|------------------||
G||------------------|------------------||
D||------------------|-------------2----||
A||-----2-4---4------|-----2-4---4---4--||
E||-2-5-----5---5-2--|-2-5-----5--------||






Bm   D/B           F#m
Slow down, you are out of control
A/5-                Dsus2
One of us is right. One of us is wrong
Bm                     F#m
And I know that you're not coming home
        A/5-             Dsus2
There's no where to park after it gets dark
      Bm
Yeah
      D/B         F#m
Can't tell what I want when you sing
   A                              Bsus2
So keep it to yourself, I haven't missed anything


......................................................

F#m / A / Dsus2 / Dsus2
F#m / A / Dsus2 / Dsus2
E   / A / Dsus2 / Dsus2
F#m / A / Bsus2
       
E||------------------|------------------||
B||------------------|------------------||
G||------------------|------------------||
D||------------------|-------------2----||
A||-----2-4---4------|-----2-4---4---4--||
E||-2-5-----5---5-2--|-2-5-----5--------||


You are my voice, my microphone
You are my voice, so take me on
You are my voice

.......................................................



Bm   Ebm           F#m
Slow down, you are out of control
A/5-                      Dsus2
It could be so easy if it didn't feel so wrong
    Bm                 F#m
And warmed up and your hair is too long
A/5-                 Dsus2
What if I was young, what if i was younger?
Bm            F#m
And so, well, finally she showed
  A                                 Bsus2
I never should have asked, it was a long time ago




......................................................

F#m / A / Dsus2 / Dsus2
F#m / A / Dsus2 / Dsus2
E   / A / Dsus2 / Dsus2
F#m / A / Bsus2
       
E||------------------|------------------||
B||------------------|------------------||
G||------------------|------------------||
D||------------------|-------------2----||
A||-----2-4---4------|-----2-4---4---4--||
E||-2-5-----5---5-2--|-2-5-----5--------||


You are my voice, my microphone
You are my voice, so take me on
You are my voice

.......................................................








#------------------------------------------------------------------------------##





Comments


Popular Coconut Records tabs & chords
Any Fun Chords
Saint Jerome Chords
This Old Machine Chords
West Coast Chords
West Coast 1 Chords
West Coast Intro Tabs
Easy Girl Ukulele
Microphone Ukulele
Slowly Ukulele
Summer Day Ukulele


Song lyrics



↑ Back to top | Tablatures and chords are parodies/interpretations of the original songs. You may use it for private study, scholarship, research or language learning purposes only
© 2014 AZChords.com Contact us | Privacy policy | DMCA | Add/correct tabs | Request tabs | Top 50 tabs