>
 >
Train In The Rain 1

Train In The Rain 1 Guitar Tabs

Cockburn Bruce - Train In The Rain 1 chords, tabs, tablatures, lyrics

Guitar lessons | Add/correct | Request | Top 50 tabs Artists:  A B C D E F G H I J K L M N O P Q R S T U V W X Y Z 0-9

Train In The Rain 1 Guitar Tabs – Cockburn Bruce

CD, Sheet music, Poster

Do you like Train In The Rain 1? Share with your friends now
TabsTabs v2
Train in the Rain  - Bruce Cockburn
~~~~~~~~~~~~~~~~~


We found it difficult to transcribe the exact rhythm - the "feel" of
the piece is most important, and tab cannot capture this.
We're not 100% happy with our transcription for measures 41 to 43 (and
their repeats), but we felt that we tabbed the best compromise.  If anyone
has any better suggestions *please* let us know!  Don't be put off by the
length of this tab: most of it is repeats!  8^)

Any comments, suggestions etc appreciated.  Enjoy...


Use a combination of strumming and "clawhammer style" fingerpicking,
keeping the bass chugging like a train.  Be percussive.

Cockburn plays this on a resonator guitar.

Tuning: drop D (DADGBE)
Capo:   2nd fret
Timing: 4/4
Tempo:  MM = 104 (total track time = 3:45)


 1  ,   .   ,   .   ,   .   ,   .     ,   .   ,   .   ,   .   ,   .
||----------------------------------|---------------------------------|
||--3---------3-----3-------3-------|-3-----3-------3---3-----3-------|
||*-2---------2-----0-------4-------|-2-----2-------2---2-----2-------|
||*-0---------0---0-------0-------0-|-------0-------0---0---0-------0-|
||----------------------------------|---------------------------------|
||--0---0---0---0---0---0---0---0---|-0---0---0---0---0---0---0---0---|


 5,   .   ,   .   ,   .   ,   .     ,   .   ,   .   ,   .   ,   .
|---------------------------------|----------------------------------||
|-3---------3-----3-------3-------|-3-----3-------3---3-----3--------||
|-2---------2-----0-------4-------|-2-----2-------2---2-----2-------*||
|-0---------0---0-------0-------0-|-------0-------0---0---0-------0-*||
|---------------------------------|----------------------------------||
|-0---0---0---0---0---0---0---0---|-0---0---0---0---0---0---0---0----||


 9 ,   .   ,   .   ,   .   ,   .     ,   .   ,   .   ,   .   ,   .
||10p5-----------------------------|---------------------------------|
||-----7-----5-----------3---------|---3-----------3-----3-----------|
||-------7\6-------6\4-------------|---4-----6---6-4-----4---------2-|
||---------------7-----5-----------|-----------7---5-----5-----4/5---|
||-0---0---0---0---0---0---0-------|-0---0---0---0---0---0---0---0---|
||-0---0---0---0---0---0---0-------|-0---0---0---0---0---0---0---0---|


11,   .   ,   .   ,   .   ,   .     ,   .   ,   .   ,   .   ,   .
|---------------------------------|---------------------------------|
|-3---------3-----3-------3-------|-3-----3-------3---3-----3-------|
|-2---------2-----2-------2-------|-2-----2-------2---2-----2-------|
|-0---------0---0-------0-------0-|-------0-------0---0---0-------0-|
|---------------------------------|---------------------------------|
|-0---0---0---0---0---0---0---0---|-0---0---0---0---0---0---0---0---|


13,   .   ,   .   ,   .   ,   .     ,   .   ,   .   ,   .   ,   .
|10p5-----------------------------|---------------------------------|
|-----7-----5-----------3---------|---3-----------3-----3-----------|
|-------7\6-------6\4-------------|---4-----6---6-4-----4---------2-|
|---------------7-----5-----------|-----------7---5-----5-----4/5---|
|-0---0---0---0---0---0---0---0---|-0---0---0---0---0---0---0---0---|
|-0---0---0---0---0---0---0---0---|-0---0---0---0---0---0---0---0---|


15,   .   ,   .   ,   .   ,   .     ,   .   ,   .   ,   .   ,   .
|---------------------------------|---------------------------------||
|---------------------------2-----|---------------------------------||
|-----------2-----2---------------|-2-----------------2-----2-------||
|-----------0---0-------4/5-----4-|-------------------0---0---------||
|-0---0---0---0---0---0---0---0---|-0---0---0---0---0---0---0-------||
|-0---0---0---0---0---0---0---0---|-0---0---0---0---0---0---0---0---||


17  ,   .   ,   .   ,   .   ,   .     ,   .   ,     .   ,   .   ,     .
||----------------------------------|------------------------------------|
||----------------------------------|------------------------------------|
||*---------------------------------|------------------------------------|
||*---5-----5-----5---5-----5-------|-----0-0-2h4p2p0---0-----0----------|
||----2-x---2-----2---2-x---2-----2-|-0h2-------------2---0h2---2h3p2p0--|
||-h2-----2-----2---2-----2-----2---|------------------------------------|


19,   .   ,   .   ,   .   ,   .     ,   .   ,   .   ,   .   ,   .
|---------------------------------|----------------------------------||
|---------3-3-3-3---3-------------|---------3-3-3-3---3--------------||
|-----2-2-2-2-2-2---0---0---0---0-|---------2-2-2-2---2-------2-2-0-*||
|-----0-0-0-0-0-0---0---0---0---0-|-----0-0-0-0-0-0---0---0---0-0-0-*||
|-0---------------x---x---0---x---|-0---------------x---x-0-0--------||
|-0---0-------------------0-------|-0-----------------------0--------||


25 ,   .   ,   .   ,   .   ,   .     ,   .   ,   .   ,   .   ,   .
||10p5-----------------------------|---------------------------------|
||-----7-----5-----------3---------|---3-----------3-----3-----------|
||-------7\6---6---6\4-------------|---4-----6---6-4-----4---------2-|
||---------------7-----5-----------|-----------7---5-----5-----4/5---|
||-0---0---0---0---0---0---0---0---|-0---0---0---0---0---0---0---0---|
||-0---0---0---0---0---0---0---0---|-0---0---0---0---0---0---0---0---|


27,   .   ,   .   ,   .   ,   .     ,   .   ,   .   ,   .   ,   .
|---------------------------------|---------------------------------|
|-3---------3-----3-------3-------|-3-----3-------3---3-----3-------|
|-2---------2-----2-------2-------|-2-----2-------2---2-----2-------|
|-0---------0---0-------0-------0-|-------0-------0---0---0-------0-|
|---------------------------------|---------------------------------|
|-0---0---0---0---0---0---0---0---|-0---0---0---0---0---0---0---0---|


29,   .   ,   .   ,   .   ,   .     ,   .   ,   .   ,   .   ,   .
|10p5-----------------------------|---------------------------------|
|-----7-----5-----------3---------|---3-----------------3-----------|
|-------7\6---6---6\4-------------|---4-----6---6-4-----4---------2-|
|---------------7-----5-----------|-----------7---5-----5-----4/5---|
|-0---0---0---0---0---0---0---0---|-0---0---0---0---0---0---0---0---|
|-0---0---0---0---0---0---0---0---|-0---0---0---0---0---0---0---0---|


31,   .   ,   .   ,   .   ,   .     ,   .   ,   .   ,   .   ,   .
|---------------------------------|---------------------------------||
|---------------------------2-----|---------------------------------||
|-----------2-----2---------------|-2-----------------2-----2-------||
|-----------0---0-------4/5-----4-|-------------------0---0---------||
|-0---0---0---0---0---0---0---0---|-0---0---0---0---0---0---0-------||
|-0---0---0---0---0---0---0---0---|-0---0---0---0---0---0---0---0---||


33  ,   .   ,   .   ,   .   ,   .     ,   .   ,     .   ,   .   ,     .
||----------------------------------|------------------------------------|
||----------------------------------|------------------------------------|
||*---------------------------------|------------------------------------|
||*---5-----5-----5---5-----5-------|-----0-0-2h4p2p0---0-----0----------|
||----2-x---2-----2---2-x---2-----2-|-0h2-------------2---0h2---2h3p2p0--|
||-h2-----2-----2---2-----2-----2---|------------------------------------|


35,   .   ,   .   ,   .   ,   .     ,   .   ,   .   ,   .   ,   .
|---------2-2-2-2---0-------------|-------3---3---3---2--------------||
|---------3-3-3-3---3-------------|-------3---3---3---3--------------||
|-----2-2-2-2-2-2---0---0---0---0-|-----2-2---2---2---2---2---2-2-0-*||
|-----0-0-0-0-0-0---0---0---0---0-|-----0-0---0---0---0---0---0-0-0-*||
|-0---------------x---x---0---x---|-0-------x---x---x---x---0--------||
|-0-----------------------0-------|-0-----------------------0--------||


41  ,   .   ,   .   ,   .   ,   .     ,   .   ,   .   ,   .   ,   .
||----------------------------------|-----------------2---------------|
||------2-----3-----5-----3---2-----|-----3-----5-----3-----5---3-----|
||*----------(0)---(0)---(0)--------|-----2-----2----(2)----2--(2)----|
||*---2-----4-----5-----4-----2---2-|---4-----4-----4-----4-----4---4-|
||--0-----0-----0-----0-----0---0---|-2-----2-----2-----2-----2---2---|
||----------------------------------|---------------------------------|

                                  .....................................
                                   1.                                 |
43,   .   ,   .   ,   .   ,   .     ,   .   ,   .   ,   .   ,   .     |
|---------------------------------|----------------------------------||
|-----2-----3-----5-----3---2---0-|-------0---0-----0-----0---0------||
|----------(0)---(0)---(0)------0-|-------0---0-----0-----0---0-----*||
|---2-----4-----5-----4-----2---0-|-----------0---0-------0---0---0-*||
|-0-----0-----0-----0-----0---0---|----------------------------------||
|---------------------------------|-5---5---5---5---5---5---5---5----||

...................................
 2.
48,   .   ,   .   ,   .   ,   .     ,   .   ,   .   ,   .   ,     .
|---------------------------------|-----------------------------------|
|-------0---0-----0---------------|-----------------------------------|
|-------0---0-----0-------2-------|-----------------------------------|
|-----------0---0-------0-------0-|-4-----4-------4---4-----4p2p0-----|
|---------------------------------|-0-----0-------0---0---0-------2p0-|
|-5---5---5---5---5---5---4---4---|-0---0---0---0---0---0-------------|


50,   .   ,   .   ,   .   ,   .
|---------------------------------||
|-----------3-----3---------3-----||
|-----------2-----2---------2-----||
|-0-----0---0---0-------0---0---0-||
|-------0-------------------------||
|-0---0---0---0---0---0---0---0---||


51  ,   .   ,   .   ,   .   ,   .     ,   .   ,   .   ,   .   ,   .
||----------------------------------|---------------------------------|
||--3---------3-----3-------3-------|-3-----3-------3---3-----3-------|
||*-2---------2-----0-------4-------|-2-----2-------2---2-----2-------|
||*-0---------0---0-------0-------0-|-------0-------0---0---0-------0-|
||----------------------------------|---------------------------------|
||--0---0---0---0---0---0---0---0---|-0---0---0---0---0---0---0---0---|


55 ,   .   ,   .   ,   .   ,   .     ,   .   ,   .   ,   .   ,   .
||---------------------------------|----------------------------------||
||-3---------3-----3-------3-------|-3-----3-------3---3-----3--------||
||-2---------2-----0-------4-------|-2-----2-------2---2-----2-------*||
||-0---------0---0-------0-------0-|-------0-------0---0---0-------0-*||
||---------------------------------|----------------------------------||
||-0---0---0---0---0---0---0---0---|-0---0---0---0---0---0---0---0----||


59 ,   .   ,   .   ,   .   ,   .     ,   .   ,   .   ,   .   ,   .
||10p5-----------------------------|---------------------------------|
||-----7-----5-----------3---------|---3-----------------3-----------|
||-------7\6---6---6\4-------------|---4-----6---6-4-----4---------2-|
||---------------7-----5-----------|-----------7---5-----5-----4/5---|
||-0---0---0---0---0---0---0---0---|-0---0---0---0---0---0---0---0---|
||-0---0---0---0---0---0---0---0---|-0---0---0---0---0---0---0---0---|


61,   .   ,   .   ,   .   ,   .     ,   .   ,   .   ,   .   ,   .
|---------------------------------|---------------------------------|
|-3---------3-----3-------3-------|-3-----3-------3---3-----3-------|
|-2---------2-----2-------2-------|-2-----2-------2---2-----2-------|
|-0---------0---0-------0-------0-|-------0-------0---0---0-------0-|
|---------------------------------|---------------------------------|
|-0---0---0---0---0---0---0---0---|-0---0---0---0---0---0---0---0---|


63,   .   ,   .   ,   .   ,   .     ,   .   ,   .   ,   .   ,   .
|10p5-----------------------------|---------------------------------|
|-----7-----5-----------3---------|---3-----------3-----3-----------|
|-------7\6---6---6\4-------------|---4-----6---6-4-----4---------2-|
|---------------7-----5-----------|-----------7---5-----5-----4/5---|
|-0---0---0---0---0---0---0---0---|-0---0---0---0---0---0---0---0---|
|-0---0---0---0---0---0---0---0---|-0---0---0---0---0---0---0---0---|


65,   .   ,   .   ,   .   ,   .     ,   .   ,   .   ,   .   ,   .
|---------------------------------|---------------------------------||
|---------------------------2-----|---------------------------------||
|-----------2-----2---------------|-2-----------------2-----2-------||
|-----------0---0-------4/5-----4-|-------------------0---0---------||
|-0---0---0---0---0---0---0---0---|-0---0---0---0---0---0---0-------||
|-0---0---0---0---0---0---0---0---|-0---0---0---0---0---0---0---0---||


67  ,   .   ,   .   ,   .   ,   .     ,   .   ,     .   ,   .   ,     .
||----------------------------------|------------------------------------|
||----------------------------------|------------------------------------|
||*---------------------------------|------------------------------------|
||*---5-----5-----5---5-----5-------|-----0-0-2h4p2p0---0-----0----------|
||----2-x---2-----2---2-x---2-----2-|-0h2-------------2---0h2---2h3p2p0--|
||-h2-----2-----2---2-----2-----2---|------------------------------------|


69,   .   ,   .   ,   .   ,   .     ,   .   ,   .   ,   .   ,   .
|---------2-2-2-2---0-------------|-------3---3---3---2--------------||
|---------3-3-3-3---3-------------|-------3---3---3---3--------------||
|-----2-2-2-2-2-2---0---0---0---0-|-----2-2---2---2---2---2---2-2-0-*||
|-----0-0-0-0-0-0---0---0---0---0-|-----0-0---0---0---0---0---0-0-0-*||
|-0---------------x---x---0---x---|-0-------x---x---x---x---0--------||
|-0-----------------------0-------|-0-----------------------0--------||


75  ,   .   ,   .   ,   .   ,   .     ,   .   ,   .   ,   .   ,   .
||----------------------------------|-----------------2---------------|
||------2-----3-----5-----3---2-----|-----3-----5-----3-----5---3-----|
||*----------(0)---(0)---(0)--------|-----2-----2----(2)----2--(2)----|
||*---2-----4-----5-----4-----2---2-|---4-----4-----4-----4-----4---4-|
||--0-----0-----0-----0-----0---0---|-2-----2-----2-----2-----2---2---|
||----------------------------------|---------------------------------|

                                  .....................................
                                   1.                                 |
77,   .   ,   .   ,   .   ,   .     ,   .   ,   .   ,   .   ,   .     |
|---------------------------------|----------------------------------||
|-----2-----3-----5-----3---2---0-|-------0---0-----0-----0---0------||
|----------(0)---(0)---(0)------0-|-------0---0-----0-----0---0-----*||
|---2-----4-----5-----4-----2---0-|-----------0---0-------0---0---0-*||
|-0-----0-----0-----0-----0---0---|----------------------------------||
|---------------------------------|-5---5---5---5---5---5---5---5----||

...................................
 2.
82,   .   ,   .   ,   .   ,   .     ,   .   ,   .   ,   .   ,     .
|---------------------------------|-----------------------------------|
|-------0---0-----0---------------|-----------------------------------|
|-------0---0-----0-------2-------|-----------------------------------|
|-----------0---0-------0-------0-|-4-----4-------4---4-----4p2p0-----|
|---------------------------------|-0-----0-------0---0---0-------2p0-|
|-5---5---5---5---5---5---4---4---|-0---0---0---0---0---0-------------|


84,   .   ,   .   ,   .   ,   .
|---------------------------------||
|-----------3-----3---------3-----||
|-----------2-----2---------2-----||
|-0-----0---0---0-------0---0---0-||
|-------0-------------------------||
|-0---0---0---0---0---0---0---0---||


85  ,   .   ,   .   ,   .   ,   .     ,   .   ,   .   ,   .   ,   .
||----------------------------------|---------------------------------|
||--3---------3-----3-------3-------|-3-----3-------3---3-----3-------|
||*-2---------2-----0-------4-------|-2-----2-------2---2-----2-------|
||*-0---------0---0-------0-------0-|-------0-------0---0---0-------0-|
||----------------------------------|---------------------------------|
||--0---0---0---0---0---0---0---0---|-0---0---0---0---0---0---0---0---|


89 ,   .   ,   .   ,   .   ,   .     ,   .   ,   .   ,   .   ,   .
||---------------------------------|----------------------------------||
||-3---------3-----3-------3-------|-3-----3-------3---3-----3--------||
||-2---------2-----0-------4-------|-2-----2-------2---2-----2-------*||
||-0---------0---0-------0-------0-|-------0-------0---0---0-------0-*||
||---------------------------------|----------------------------------||
||-0---0---0---0---0---0---0---0---|-0---0---0---0---0---0---0---0----||


93 ,   .   ,   .   ,   .   ,   .
||---------------------------------||
||-------3-------------------------||
||-----2---------------------------|| Fine.
||---0-----------------------------||
||---------------------------------||
||-0-------------------------------||





Comments


Popular Cockburn Bruce tabs & chords
Burden Of The Angel Beast Tabs
Happy Good Morning Blues Tabs
January In The Halifax Airport Lounge Tabs
Lifes Mistress 1 Tabs
Love Song Tabs
Rainfall 1 Tabs
Sunrise On The Mississippi 1 Tabs
Sunwheel Dance Tabs
Sunwheel Dance 1 Tabs
You Point To The Sky Tabs


Song lyrics



↑ Back to top | Tablatures and chords are parodies/interpretations of the original songs. You may use it for private study, scholarship, research or language learning purposes only
© 2014 AZChords.com Contact us | Privacy policy | DMCA | Add/correct tabs | Request tabs | Top 50 tabs