» » »

Sunwheel Dance Tabs (ver.1)

Artists:  A B C D E F G H I J K L M N O P Q R S T U V W X Y Z # 

Sunwheel Dance Tabs (ver.1)

Cockburn Bruce
Rating:
0/5 (0 votes)

Hard to play? Try these video lessons and learn fast.
                References:  
Lines: 32

Great contribution Alessandro. I noticed one small mistake just from memory.

|-----0---2p0-----|-4p0-----5-------|-----0---2p0-----|-0-----0---------|
 |-0h2---0-------0-|-------0---------|-0h2---0-----2p0-|---4b------------|
 |-----------------|-----------------|-----------------|-----------------|
 |-----0-------0---|-----0-------5---|-----0-------0---|-----0-------0---|
 |-----------------|-----------------|-----------------|-----------------|
 |-0-------0-------|-0-------5-------|-0-------0-------|-0-------0-------|
   |_| |_| |_| |_|   |_| |_| |   |     |_| |_| |_| |_|   |_| |_| |   |   


should be


|-----0---2p0-----|-4p0-----5-------|-----0---2p0-----|-0-----0---------|
 |-0h2---0-------0-|-------0---------|-0h2---0-----2p0-|---4b------------|
 |-----------------|-------------5---|-----------------|-----------------|
 |-----0-------0---|-----0-------5---|-----0-------0---|-----0-------0---|
 |-----------------|-----------------|-----------------|-----------------|
 |-0-------0-------|-0-------5-------|-0-------0-------|-0-------0-------|
   |_| |_| |_| |_|   |_| |_| |   |     |_| |_| |_| |_|   |_| |_| |   |   


I know its trivial but that's how bruce plays it.

Bruce is my favourate acoustic guitar player, at least his 1960 1970's stuff. Do
have any other tab for his other stuff, ie: spring song, keep it open - you know,
stuff off of his Going To The Country album.

Thanks a lot 
Later,
Steve.
            
Hard to play? Try these video lessons and learn fast. | Correct




comments powered by Disqus
↑ Back to top | Tablatures and chords are parodies/interpretations of the original songs. You may use it for private study, scholarship, research or language learning purposes only