>
 >
January In The Halifax

January In The Halifax Guitar Tabs

Cockburn Bruce - January In The Halifax chords, tabs, tablatures, lyrics

Guitar lessons | Add/correct | Request | Top 50 tabs Artists:  A B C D E F G H I J K L M N O P Q R S T U V W X Y Z 0-9

January In The Halifax Guitar Tabs – Cockburn Bruce

CD, Sheet music, Poster

Do you like January In The Halifax? Share with your friends now
TabsTabs v2
#

 January in the Halifax Airport Lounge  - Bruce Cockburn
 ~~~~~~~~~~~~~~~~~~~~~~~~~~~~~~~~~~~~~
 From "Joy Will Find A Way".

 Drop-D tuning.
 Capo 1st fret.

 4/4 time.

    , . , . , . , .  , . , . , . , .  , . , . , . , .   , . , . , . , .
 ||-------0--------|-----0----------|-----------------|------------------|
 ||-----7-----7----|-3-----3--------|-3---------3-----|-----------3------|
 ||---6------------|---4-------4----|---------------2-|---------------2/-|
 ||-----7-------7\-|-----5-------5--|-----4-------4---|-----4-------4----|
 ||-0-------0------|-0-------0------|-----------------|------------------|
 ||----------------|----------------|-0-------0-------|-0-------0--------|



    , . , . , . , .  , . , . , . , .   , . , . , . , .   , . , . , . , .
 |--------5--------|-----0-----------|-----------------|----------------||
 |----5h7-----7----|-3-----3-----3---|-3-----3---------|-3-----3--------||
 |-/6--------------|---4-------4-----|-----------2-4---|---4-------2----||
 |------7-------7--|-----5-------5---|-----4-------4---|-----4-------4--||
 |--0-------0------|-0-------0-------|---------0-------|---------0------||
 |-----------------|-----------------|-0---------------|-0--------------||



     , . , . , . , .   , . , . , . , .   , . , . , . , .  , . , . , . , .
 ||--------0---------|-----------------|----------------|----------------|
 ||------7-----7-----|-3-----3---------|-----3-----3----|-3-----3--------|
 ||*---6-------------|---4-------4-----|-------------4--|---4-------2----|
 ||*-----7-------7---|-----5-------5---|-----4-------4--|-----4-------4--|
 ||--0-------0-------|-0-------0-------|---------0------|---------0------|
 ||------------------|-----------------|-0--------------|-0--------------|
               Distant times  in distant lands
             There's a crisis     in the outer world
            In life so delicate      and strange


   , . , . , . , .   , . , . , . , .   , . , . , . , .   , . , . , . , .
 |-------0---------|-----------------|-----------------|-----------------|
 |-----7-----7-----|-3-----3---------|-----3-----3-----|-3-----3---------|
 |---6-------------|---4-------4-----|-------------2h4-|---4-------4p2---|
 |-----7-------7---|-----5-------5---|-----4-------4---|-----4-------4---|
 |-0-------0-------|-0-------0-------|---------0-------|---------0-------|
 |-----------------|-----------------|-0---------------|-0---------------|
           Worthless money    changing hands
             In the sky the smoke trails curl
         Understanding seldom comes in range


   , . , . , . , .   , . , . , . , .   , . , . , . , .   , . , . , . , .
 |-----------------|-----------------|-----2-----2-----|-2---------------|
 |-------3---------|-------1---------|-----1-----1p0---|-1p0-------1-----|
 |---0---0---0-----|---0---0---0-----|---------------2-|-------2---------|
 |-----2-------2---|-----1-------1---|-----0-------0---|-----0-------0---|
 |-----------------|-----------------|---------0-------|---------0-------|
 |-2-------2-------|-1-------1-------|-0---------------|-0---------------|
     Changing them to what?          I wonder
       Some Winnipeg boys          are Cypress bound
         We stumble through   familiar scenes


   , . , . , . , .   , . , . , . , .   , . , . , . , .   , . , . , . , .
 |-----------------|-----------------|-----2-----3-----|-2---------------|
 |-------3---------|-------1---------|-----1-----1p0---|-1p0---1---------|
 |---0---0---0-----|---0---0---0-----|---------------2-|-----------2-----|
 |-----2-------2---|-----1-------1---|-----0-------0---|-----0-------0---|
 |-----------------|-----------------|---------0-------|---------0-------|
 |-2-------2-------|-1-------1-------|-0---------------|-0---------------|
           As in the dust  a jet plane thunders
        I hope they live to touch home ground
              Never thinking   what it means


   , . , . , . , .   , . , . , . , .   , . , . , . , .   , . , . , . , .
 |-----------------|-----------------|-----------5-----|-7p5-------------|
 |---3-------3-----|-6b--------6-----|-6/7-------------|------/7---------|
 |-------4---------|-------7-------7-|-----------------|-----------7-----|
 |-----5-------5---|-----8-------8---|-----0-------0---|-----0-------0---|
 |-----------------|-----------------|---------0-------|---------0-------|
 |-5-------5-------|-8-------8-------|-0---------------|-0---------------|
   Carries every     feeling into      blue
   I hope we live to touch if just once more
   In this cluttered landscape  to be  loved


   , . , . , . , .   , . , . , . , .   , . , . , . , .   , . , . , . , .
 |-------0---------|-----------------|-----------------|----------------||
 |-----7-----7-----|-3-----3---------|-3-----3---3-----|-----3-3--------||
 |---6-------------|---4-------4-----|-----------------|-2h4-------4p2--||
 |-----7-------7---|-----5-------5---|-----4-------4---|-----4-------4--||
 |-0-------0-------|-0-------0-------|---------0-------|---------0------||
 |-----------------|-----------------|-0---------------|-0--------------||
   I miss you        like I miss the   flowers in bloom
   I need you        like the river    needs the shore
   I need you        like I need the   stars above


   1,2.------------------------------------------------------------------>
    , . , . , . , .  , . , . , . , .   , . , . , . ,   .   , . , . , . ,.
 ||---------0------|-------0---------|-------------7p5---|-7p5-----------|
 ||-----3-----3----|-6---6-----6-----|-6b7------------h7-|-------6b------|
 ||---4------------|---7-----------7-|-------------------|-----------7---|
 ||-----5-------5--|-----8-------8---|-----0-------0-----|-----0-------0-|
 ||----------------|-----------------|---------0---------|---------0-----|
 ||-5-------5------|-8-------8-------|-0-----------------|-0-------------|



  1,2.-------------------------------------------------------------------.
   , . , . , . , .   , . , . , . , .   , . , . , . , .  , . , . , . , .  |
 |-------5---------|-----0-----------|----------------|-----------------||
 |-----7-----7-----|-3-----3-----3---|-3-----3--------|-3-----3---------||
 |---6-------------|---4-------4-----|-----------2-4--|---4-------2----*||
 |-----7-------7---|-----5-------5---|-----4-------4--|-----4-------4--*||
 |-0-------0-------|-0-------0-------|---------0------|---------0-------||
 |-----------------|-----------------|-0--------------|-0---------------||



   3.------------>
    , . ,. , . ,.  , . , . , . , .   , . , . ,   . , .   , . , . , . , .
 ||--------0-----|-------0---------|-----5---8p7p5-7p5-|-10--------------|
 ||-----3----3---|-6---6-----6-----|-6b7---------------|---6b----------0-|
 ||---4----------|---7-----------7-|-------------------|-------7---------|
 ||-----5------5-|-----8-------8---|-----0---------0---|-----0-------0---|
 ||--------------|-----------------|---------0---------|---------0-------|
 ||-5------5-----|-8-------8-------|-0-----------------|-0---------------|



   , . , . , . , .   , . , . , . , .   , . , . , . , .   , . , . , . , .
 |-------0---------|-----------------|-----------------|-----------------|
 |-----7-----7-----|-3-----3-----3---|-3-----3---------|-3-----3---------|
 |---6-------------|---4-------4-----|-----------2-4---|---4-------2-----|
 |-----7-------7---|-----5-------5---|-----4-------4---|-----4-------4---|
 |-0-------0-------|-0-------0-------|---------0-------|---------0-------|
 |-----------------|-----------------|-0---------------|-0---------------|
     I need you      like I need the   stars above


   , . , . , . , .   , . , . , . , .   , . , . , . , .   , . , . , . , .
 |-------5---------|-----0-----------|-----------------|----------------||
 |-----7-----7-----|-3-----3-----3---|-3---------------|-3--------------||
 |---6-------------|---4-------4-----|-----4---2-4-----|-2--------------||
 |-----7-------7---|-----5-------5---|-----4-----------|-4--------------||
 |-0-------0-------|-0-------0-------|---------0-------|----------------||
 |-----------------|-----------------|-0---------------|-0--------------||





Comments


Popular Cockburn Bruce tabs & chords
All The Ways I Want You Chords
If I Had A Rocket Launcher Chords
Loner Chords
Someone I Used To Love Chords
They Call It Democracy Chords
Grim Travellors 1 Tabs
Happy Good Morning Blues 1 Tabs
Lifes Mistress 1 Tabs
Sunrise On The Mississippi 1 Tabs
You Point To The Sky 1 Tabs


Song lyrics



↑ Back to top | Tablatures and chords are parodies/interpretations of the original songs. You may use it for private study, scholarship, research or language learning purposes only
© 2014 AZChords.com Contact us | Privacy policy | DMCA | Add/correct tabs | Request tabs | Top 50 tabs