» » »

Heres To Entropy Tabs (ver.1)

Artists:  A B C D E F G H I J K L M N O P Q R S T U V W X Y Z # 

Heres To Entropy Tabs (ver.1)

Closure In Moscow
Rating:
1/5 (1 vote)

Tabs too difficult? Try these video lessons and learn fast.
                (Intro)

I've grown weary of poor quality tabs for CIM Thanks to my superior tabbing and guitar 
here is the TRUE intro to Here's to Entropy, with both Manny and Barrett's parts.

Drop C# tuning, their whole Albumette is done in this tuning.

Intro- Manny
e|---------------------------------|---------------------------------|
B|---------------------------------|---------------------------------|
G|---------------------------------|---------------------------------|
D|---------------------------------|---------------------------------|
A|---------------------------------|---------------------------------|
D|-8-8-8-7-7-7-5-5-5-3-3-3-5-5-3-3-|-0-0-0-0-0-0-0-0-3-3-3-5-5-5-3-3-|

e|---------------------------------|-------------------------------------|
B|---------------------------------|-------------------------------------|
G|---------------------------------|-------------------------------------|
D|---------------------------------|-------------------------------------|
A|---------------------------------|-------------------------------------|
D|-5-5-5-5-5-5-5-5-7-7-7-7-7-7-7-7-|-3-0-0-3-0-0-3-0-3-0-0-3-0-7-7-7-----|

Intro- Barrett
e|------------------12----------------------------------------|
B|---------------10-------------------------------------------|
G|--14-0-10-0----------10-12-0-10-0-12-14-12-10---------------|
D|------------12----------------------------------------------|
A|------------------------------------------------------------|
D|------------------------------------------------------------|

I think Barrett's lead riff repeats until the first verse.
But there you go, Here's to
            
Tabs too difficult? Try these video lessons and learn fast.


comments powered by Disqus
↑ Back to top | Tablatures and chords are parodies/interpretations of the original songs. You may use it for private study, scholarship, research or language learning purposes only