» » »

Live Fast Die Young Bass tabs (ver.2)

Artists:  A B C D E F G H I J K L M N O P Q R S T U V W X Y Z # 

Live Fast Die Young Bass tabs (ver.2)

Circle Jerks
Rating:
0/5 (0 votes)

Tabs too difficult? Try these video lessons and learn fast.
                Intro x2
G----------------------------------|
D----------------------------------|
A----------------------------------|
E-7-7-7-7-8-8-8-8--5-5-5-5-5-5-5-5-|

Verse x4
G----------------------------------|
D----------------------------------|
A----------------------------------|
E-7-7-7-7-8-8-8-8--5-5-5-5-5-5-5-5-|

Chorus x2
G-------------------------------------------------|
D-------------------------------------------------|
A-7-7-7-7-7-7-5-5-5-5-5-5-------------------------|
E-------------------------7-7-7-7-7-5-7-7-7-7-7-5-|

Verse x4
G----------------------------------|
D----------------------------------|
A----------------------------------|
E-7-7-7-7-8-8-8-8--5-5-5-5-5-5-5-5-|

Chorus x2
G-------------------------------------------------|
D-------------------------------------------------|
A-7-7-7-7-7-7-5-5-5-5-5-5-------------------------|
E-------------------------7-7-7-7-7-5-7-7-7-7-7-5-|

Solo/Bridge 
G-----------------------|-----------------------|-----------------------|
D-----------------------|-----------------------|-----------------------|
A-----------------------|-----------------------|-----------------------|
E-7-7-7-7-8-8-8-8--5----|-7-7-7-7-8-8-8-8--5----|-7-7-7-7-8-8-8-8--5----|

G-----------------------------------------|
D-----------------------------------------|
A-----------------------------------------|
E-7-7-7-7-8-8-8-8-5-5-5-5-5-5-5-5-5-5-5-5-|

Chorus x4
G-------------------------------------------------|
D-------------------------------------------------|
A-7-7-7-7-7-7-5-5-5-5-5-5-------------------------|
E-------------------------7-7-7-7-7-5-7-7-7-7-7-5-|

Verse x4
G----------------------------------|
D----------------------------------|
A----------------------------------|
E-7-7-7-7-8-8-8-8--5-5-5-5-5-5-5-5-|

Outro ("Live fast Die Young...") x4
G----------------------------------|---------|
D----------------------------------|---------|
A----------------------------------|-7-7-7-7-|
E-7-7-7-7-8-8-8-8--5-5-5-5-5-5-5-5-|---------|
            
Tabs too difficult? Try these video lessons and learn fast.




comments powered by Disqus
↑ Back to top | Tablatures and chords are parodies/interpretations of the original songs. You may use it for private study, scholarship, research or language learning purposes only