>
 >
Carol 2

Carol 2 Guitar Tabs

Chuck Berry - Carol 2 chords, tabs, tablatures, lyrics

Guitar lessons | Add/correct | Request | Top 50 tabs Artists:  A B C D E F G H I J K L M N O P Q R S T U V W X Y Z 0-9

Carol 2 Guitar Tabs – Chuck Berry

CD, Sheet music, Poster

Do you like Carol 2? Share with your friends now
ChordsTabsTabs v2Tabs v3Ukulele
Chuck Berry-Carol
Tuning:Standard E
Intro:
E---------88888-----------------------88888-----|
B----8-10-88888----8-10-88888----8-10-88888-----|
G-8/9-----------8/9-----88888-8/9-----------10BD|
D-------------------------------------------10BD|
A-----------------------------------------------|
E-----------------------------------------------|

Verse:
E---------|
B---------|
G---------|
D---------|
A-10-10-12|
E--8--8--8| Play 4x

E---------|
B---------|
G---------|
D-10-10-12|
A--8--8--8|
E---------| Play 4x

E---------|
B---------|
G---------|
D-12-12-14|
A-10-10-10|
E---------| Play 4x

Fills:
E---------8-11P---8-11P----8-11P---8|
B-----8-10-----10B-----10B-------10-|
G-8-10------------------------------|
D-----------------------------------|
A-----------------------------------|
E-----------------------------------|

E---------8-11P---8-11P----8-11P----8|
B--------------10B-----10B-------10B-|
G------------------------------------|
D------------------------------------|
A------------------------------------|
E------------------------------------|

E---------88888-----------------------88888-----|
B----8-10-88888----8-10-88888----8-10-88888-----|
G-8/9-----------8/9-----88888-8/9-----------10BD|
D-------------------------------------------10BD|
A-----------------------------------------------|
E-----------------------------------------------|

Solo:
E--------55555-------55555-------55555-------------------55555|
B----5-7-55555-7-5---55555-7-5---55555-7-5---5555----5-7-55555|
G-5/6----------7-5h6-------7-5h6-------7-5h6-5555-5/6---------|
A-------------------7-----------7-----------7-----------------|
D-------------------------------------------------------------|
E-------------------------------------------------------------|

E-7-5--5555-7-5---5---5------|
B-7-5--5555-7-5---5---5------|
G----7B--------7B--7B--7B----|
A------------------------7777|
D------------------------7777|
E----------------------------|

I think this is how he plays it the intro and the chords and deffinatley right have fun 
with this tab it's a real rock and roller!!





Comments


Popular Chuck Berry tabs & chords
Johnny B Goode 8 Bass Tabs
Maybellene Bass Tabs
Nadine Chords
Rock N Roll Music Chords
Roll Over Beethoven Chords
Johnny B Good Intro Tabs
Johnny B Goode Live Tabs
My Ding A Ling Tabs
Wee Wee Hours Tabs
Memphis Tennessee Ukulele


Song lyrics



↑ Back to top | Tablatures and chords are parodies/interpretations of the original songs. You may use it for private study, scholarship, research or language learning purposes only
© 2014 AZChords.com Contact us | Privacy policy | DMCA | Add/correct tabs | Request tabs | Top 50 tabs