>
 >
Whom Shall I Fear

Whom Shall I Fear Guitar Tabs

Chris Tomlin - Whom Shall I Fear chords, tabs, tablatures, lyrics

Guitar lessons | Add/correct | Request | Top 50 tabs Artists:  A B C D E F G H I J K L M N O P Q R S T U V W X Y Z 0-9

Whom Shall I Fear Guitar Tabs – Chris Tomlin

CD, Sheet music, Poster

Do you like Whom Shall I Fear? Share with your friends now
ChordsChords v2Chords v3Chords v4Chords v5TabsUkulele
-----------------------------------------------------------------------------
                             Whom Shall I Fear Chris Tomlin
-----------------------------------------------------------------------------

Standard Tuning

Intro:

e|--------------------------10--------|--------------------------------------|
B|------6-5-8-8-------------------8---|----6-5-8-8---------------------------|
G|---5--------------(x3)--------------|-5----------(x3)----4b----------------|
D|------------------------------------|--------------------------7--5--------|
A|------------------------------------|--------------------------------------|
E|------------------------------------|--------------------------------------|

Verse:

e|---------9----10-----------------------------------------------------------|
B|-5---5----------------------5---5---5---5---6---6---6----------------------|
G|---5---5---5------5---(x4)----5---5---5---5---5---5------------------------|
D|---------------------------------------------------------------------------|
A|---------------------------------------------------------------------------|
E|---------------------------------------------------------------------------|

e|---------9----10-----------------------------------------------------------|
B|-5---5----------------------5---5---5---5---6---6---6----------------------|
G|---5---5---5------5---(x4)----5---5---5---5---5---5------------------------|
D|---------------------------------------------------------------------------|
A|---------------------------------------------------------------------------|
E|---------------------------------------------------------------------------|

Chorus 1:

It sounds like the guitarist is playing a constant C (or 8) on the 1 string. But playing
power chords are nicer.

Am7         G       C
I know who goes before me
Am7         G       C
I know who stands behind
Am7         F                     G     C
The God of angel armies is always by my side
Am7         G       C
The One who reigns forever
Am7      G        C
He is a friend of mine
Am7         F                      G     C
The God of angel armies is always by my side

Repeat first half of intro, then onto verse 2.



Verse 2:

e|---8-8-8-10-12-10-8--------------------------------------------------------|
B|-8--------------------------8-8-8------------------------------------------|
G|---------------------(x7)--------------------------------------------------|
D|---------------------------------------------------------------------------|
A|---------------------------------------------------------------------------|
E|---------------------------------------------------------------------------|

Then back to Chorus 1

Bridge:

 F               C               G
And nothing formed against me shall stand
C                                F
You hold the whole world in Your hands
C                      Am7   G
I'm holding on to Your promises
        F
You are faithful
        G
You are faithful
 F               C               G
And nothing formed against me shall stand
C                                F
You hold the whole world in Your hands
C                      Am7   G
I'm holding on to Your promises
        F
You are faithful
        G
You are faithful
   Am7     G/B
You are faithful

Back to Chorus. After Chorus 1 go to Chorus 2 and end.

Chorus 2:

C
I know who goes before me
G/B
I know who stands behind
Am7                              F
The God of angel armies is always by my side
C
The One who reigns forever
G/B
He is a friend of mine
Am7                              F
The God of angel armies is always by my side
Am7            F                                             C
The God of angel armies is always by my side




Feel free to give constructive criticism because this is my first tab.

God bless,
Caleb



************************************

| /   slide up
| \   slide down
| h   hammer-on
| p   pull-off
| ~   vibrato
| +   harmonic
| x   Mute note
| b   Bend

************************************





Comments


Popular Chris Tomlin tabs & chords
Let God Arise Bass Tabs
Crown Him Majesty 3 Chords
God Of This City Chords
Jesus Paid It All Chords
White Flag 2 Chords
Enough Tabs
Our God Is Greater 2 Tabs
Glorious Ukulele
Lamb Of God Ukulele
Spirit Fall Ukulele


Song lyrics



↑ Back to top | Tablatures and chords are parodies/interpretations of the original songs. You may use it for private study, scholarship, research or language learning purposes only
© 2014 AZChords.com Contact us | Privacy policy | DMCA | Add/correct tabs | Request tabs | Top 50 tabs