» » »

Christmas Songs, Joy To The World Tabs (ver.1)

Artists:  A B C D E F G H I J K L M N O P Q R S T U V W X Y Z # 

Joy To The World Tabs (ver.1)

Christmas Songs Tabs
Rating:
0/5 (0 votes)
Joy To The World lessons Tabs too difficult? Try these video lessons and learn fast
                -------------------------------------------------------------------------------
			     Joy To The World – Christmas Song
-------------------------------------------------------------------------------

Tuning:Standard

TAB - 
e|------3-----2----0---------------------------3-----------------------------|
B|------0---------------3-----1---0------------0-----------------------------|
G|------0-----------------------------2----0---------------------------------|
D|------------------------------------0--------------------------------------|
A|---------------------------------------------------------------------------|
E|---------------------------------------------------------------------------|
      Joy to the World……….
e|---------0------0--2------2----3--------3------3-2-0-----------------------|
B|----3----1---------1-----------0---------------0----3----3--1-0------------|
G|---------0---------2-----------0---------------0---------0-----------------|
D|---------------------------------------------------------------------------|
A|---------------------------------------------------------------------------|
E|---------------------------------------------------------------------------|
     Let Earth Receive……                 Let    Every     Heart………..
e|---3--3--2---0-------------------------------------------------------------|
B|------0--------3----3-1-0---------0---0--0---0---0-0-1--3------------------|
G|------0-------------0-----------------0------------------------------------|
D|---------------------------------------------------------------------------|
A|---------------------------------------------------------------------------|
E|---------------------------------------------------------------------------|
     Prepare   Him   Room…….       And Heaven and Nature Sing………
e|------------------------------------------3----0----------------------3----|
B|---1-0-----------------0---1--------0-----0--------3-1-0--1---0-------0----|
G|--------2--2---2---2-2---------------2-0-----------0----------0--2---0-----|
D|--------0--------------------------------------------------------0---------|
A|---------------------------------------------------------------------------|
E|---------------------------------------------------------------------------|               
     And Heaven and Nature Sing…     And Heaven and Heaven and Nature Sing



CHORDS and LYRICS - 

G                           D7  G          C        D7       G
Joy to the world!  The Lord Has Come:  Let Earth receive her king.
G
Let Every Heart prepare him room
G
And heaven and nature sing
     D7                    
And heaven and nature sing
    G                        D7  G
And heaven and heaven and nature sing


He rules the world with truth and grace
And makes the nations prove
The Glories of his righteousness
And wonders of his love
And wonders of his love
And wonders, wonders of his love

===============================================================================

            
Submit corrections

comments powered by Disqus
↑ Back to top | Christmas Songs Tabs for Joy To The World. Lyrics for acoustic guitar and electric guitar. Tablatures and chords are parodies/interpretations of the original songs. You may use it for private study, scholarship, research or language learning purposes only