>
 >
Thinking Of You 1

Thinking Of You 1 Guitar Tabs

Christian Kane - Thinking Of You 1 chords, tabs, tablatures, lyrics

Guitar lessons | Add/correct | Request | Top 50 tabs Artists:  A B C D E F G H I J K L M N O P Q R S T U V W X Y Z 0-9

Thinking Of You 1 Guitar Tabs – Christian Kane

CD, Sheet music, Poster

Do you like Thinking Of You 1? Share with your friends now
ChordsChords v2Chords v3TabsTabs v2Ukulele
Part: Acoustic intro/verse/chorus


Chords used: (names in standard tuning)
     Emadd9 variation
e||---0----------------|
B||---3----------------|
G||---0----------------|
D||---4----------------|
A||---2----------------|
E||---0----------------|


     weird D i won't attempt to name; basically an open C moved up 2 frets
e||-------------------|
B||----3--------------|
G||----0--------------|
D||----4--------------|
A||----5--------------|
E||-------------------|




Here's the basics of the song. Tune the guitar down a half step (Eb, Ab, etc...) and 
listen for timing. the tempo is slow, probably around 70 bpm.

play these two bars 5 times, 2 are for the intro and 3 are for the verse.
e||---0------------------------------------|-----------------|-------------|
B||----3-----------------------------------|------------3----|-------------|
G||-----0---------------0--------------0---|------0----------|-------------|
D||------4---------4-------4-------4-------|----4----4-------|-------------|
A||-------2-----2-----2--------2-----------|--5--------------|-------------|
E||--------0-------------------------------|-----------------|-------------|


e||------------------------|-----------|
B||----------------1-------|------3--2-|
G||---------0---------0----|------2--2-|
D||------2------2-------2--|------2--2-|
A||----3------------------3|------0--0-|
E||------------------------|-----------|

Chorus: (names in standard tuning, play the same shape in Eb tuning)
 G
When a new moon shines through your window
  D
Or you hear a sad song on the radio
  Em                                       D
Then you don't know why but just start to cry
  G
Or you're driving 'round on a sunny day
  D
And outta nowhere comes the pouring rain
  C                                      D
Then a memory hits you right out of the blue
           G
Thats just me
  D    G    D
Thinking of you

play the intro 2 bars once, then 3 more times for the verse, then the C to A 
progression, and then a second Chorus.





Comments


Popular Christian Kane tabs & chords
La Song Chords
Making Circles Chords
More Than I Deserve Chords
The House Rules Chords
Thinking Of You Chords
Thinking Of You 1 Chords
School Of Hard Knock Tabs
Thinking Of You Tabs
Let Me Go Ukulele
Thinking Of You Ukulele


Song lyrics



↑ Back to top | Tablatures and chords are parodies/interpretations of the original songs. You may use it for private study, scholarship, research or language learning purposes only
© 2014 AZChords.com Contact us | Privacy policy | DMCA | Add/correct tabs | Request tabs | Top 50 tabs