» » »

Hands To Heaven Tabs (ver.1)

Artists:  A B C D E F G H I J K L M N O P Q R S T U V W X Y Z # 

Hands To Heaven Tabs (ver.1)

Christian Bautista
Rating:
5/5 (12 votes)

Tabs too difficult? Try these video lessons and learn fast.
                Hands to heaven
Christian Bautista

This is a very sad song. Pero i like it since it is oldies. Kantahin nyo 2 pag
iiwan nyo na ung minamhal nyo (gaya ko).hehehe
Pero just try to tab it. Try nyo kung pasado. Kasi it is played in piano. ginawan
ko lang ng acoustic para masaya..i think this is correct. 


Chords used:

        D                 GM7                 Em              G
  |-----3-----|        |----3-----|       |----0----|     |----3----|
  |-----2-----|        |----3-----|       |----0----|     |----3----|
  |-----3-----|        |----4-----|       |----0----|     |----0----|
  |-----0-----|        |----4-----|       |----2----|     |----0----|
  |-----------|        |----5-----|       |----2----|     |----2----|
  |-----------|        |----3-----|       |----0----|     |----3----|



Intro:

e|--2--------0--2-- 3-----2-3-5-2-3-10----5--2-3---10---------------|
B|--3-----3---------3---3---------------3---------3------------------|
G|--2---2---------- 4--0---------------------------------------------|
D|--0---------------4----------------------5-------------------------|
A|------------------5------------------------------------------------|
E|------------------3------------------------------------------------|

Note: Apply here plucking but in chorus, maybe both plucking and strumming

Verse 1:

D                                 GM7 
As I watch you move, across the moonlit room, 

Em                                G
There's so much tenderness in your loving. 

D                                    GM7
Tomorrow I must leave, the dawn knows no reprieve.



Em                             G
God give me strength when I am leaving, 

              
              D                   GM7
So raise your hands to heaven, and pray

              Em                G
That we'll be back together someday, hey!  


Chorus:
   D                        
To-night I need your sweet caress 
       
       GM7
       (Hold me in the darkness.)
   
   Em
To-night you calm my restlessness 
       
       G
      (You relieve my sadness.)

Verse 2:
As we move to embrace, tears roll down your face,
I whisper words of love so softly. 
I can't believe this pain, it's driving me insane,
Without your touch life will be lonely.

So raise your hands to heaven and say
that we'll be back together someday, hey!

(Chorus: 2x)


Verse 3:
D
Morning has come another day,

GM7
I must pack my bags and say, 

Em          G
"Goodbye, Goodbye!" 

(Repeat chorus until fade)
            
Tabs too difficult? Try these video lessons and learn fast.




comments powered by Disqus
↑ Back to top | Tablatures and chords are parodies/interpretations of the original songs. You may use it for private study, scholarship, research or language learning purposes only