» » »

Christensen Tim, Jump The Gun Tabs (ver.2)

Artists:  A B C D E F G H I J K L M N O P Q R S T U V W X Y Z # 

Jump The Gun Tabs (ver.2)

Christensen Tim Tabs
 Rating:
4/5 (4 votes)
Jump The Gun lessons Tabs too difficult? Try these video lessons and learn fast
                (Solo)
			     Jump The Gun - Tim Christensen

Tuning: Standard



e|-----------------|--------------------------|-----------------|---------------------|
B|----10-10--10-10-|-10--10-10--(x)-10--9-8-7-|----10-10--10-10-|-10--8-8-8-8-8-------|
G|----11-11--11-11-|-11--11-11------11-10-9-8-|----11-11--11-11-|-11--7-7-7-7-7-------|
D|-----------------|--------------------------|-----------------|---------------------|
A|-----------------|--------------------------|-----------------|---------------------|
E|-----------------|--------------------------|-----------------|---------------------|

e|-----------------|-----------------------------|-----------------|
B|-----------------|-----------------------------|-----------------|
G|--7/9b11^11-11r9-|-7-9b11-9b11r9-9-9--9-7-9-7--|-9^?p7-----------|
D|-----------------|-----------------------------|-------9~~~~-----|
A|-----------------|-----------------------------|-----------------|
E|-----------------|-----------------------------|-----------------|


e|-----------------|-----------------------------------------------|
B|-----------------|-------------10----------------------10--------|
G|---7-9-(x)7------|-7-9-9^11-^11----^11-9--7-9-9^11-^11----^11-9--|
D|-9----------9----|-----------------------------------------------|
A|-----------------|-----------------------------------------------|
E|-----------------|-----------------------------------------------|


~Harmonisk~
e|--(12)--------------10-------10\-----------------------------------|
B|--(12)----10h12p10-----12p10------7h9p7----------------------------|
G|--(12)----------------------------------9-9p7-7h9------------------|
D|--(12)--------------------------------------------7h9-9------------|
A|---------------------------------------------------------9p7 7h9-9-|
E|-------------------------------------------------------------------|

e|--------------------------------------------------------------------------------------|
B|--------------------------------------------------------------------------------------|
G|--------------------------------------------------------------------------------------|
D|------------------------------------7-9-7-7-9-12-(15)-16-16-16-16^15-15-15-15.....etc.|
A|-5-5-7-9----7---5-7-9----7------7-9---------------------------------------------------|
E|---------10-----------10------10------------------------------------------------------|

h - Hammer on
p - Pull off
/ - slide up
\ - slide down
^ - bend up/down

Intro: (x2)
|A--B|B---|B---|B---|

Vers: (x2)
|B---|A---|G---|G---|
|B---|D---|C---|C---|
            
Submit corrections

comments powered by Disqus
↑ Back to top | Christensen Tim Tabs for Jump The Gun. Lyrics for acoustic guitar and electric guitar. Tablatures and chords are parodies/interpretations of the original songs. You may use it for private study, scholarship, research or language learning purposes only