» » »

Chris Cornell, Climbing Up The Walls Tabs (ver.2)

Artists:  A B C D E F G H I J K L M N O P Q R S T U V W X Y Z # 

Climbing Up The Walls Tabs (ver.2)

Chris Cornell Tabs
Rating:
0/5 (0 votes)
Climbing Up The Walls lessons Tabs too difficult? Try these video lessons and learn fast
                         Tuning EADGbe
 I am missing one part where their is a short solo after the 2nd chorus  
       intro
e|-------------------------------------------------------------------------|
b|-------------------------------------------------------------------------|
G|-------------------------------------------------------------------------|
D|------5-5-5----------9-9-9--------7-7-7----------------------------------|
A|------5-5-5----------9-9-9--------7-7-7----------------------------------|
E|------3-3-3----------7-7-7--------5-5-5----------------------------------|
      pm pm pm pm    pm pm pm pm   pm pm pm pm      repeat 6x

        pre-chorus
e|-------------------------------------------------------------------------|
b|-------------------------------------------------------------------------|
G|-------------------------------------------------------------------------|
D|------5-5-5----------7-7-7--------9-9-9----------------------------------|
A|------5-5-5----------7-7-7--------9-9-9----------------------------------|
E|------3-3-3----------5-5-5--------7-7-7----------------------------------|
       slighty palm muted

         chorus
e|-------------------------------------------------------------------------|
b|-------------------------------------------------------------------------|
G|-------------------------------------------------------------------------|
D|------5-5-5----------7-7-7--------9-9-9------7-7-7-----5-5-5-------------|
A|------5-5-5----------7-7-7--------9-9-9------7-7-7-----5-5-5-------------|
E|------3-3-3----------5-5-5--------7-7-7------5-5-5-----3-3-3-------------|

           Then intro
           Then pre-chorus
           Then chorus
                   
            Short solo slighty in the backround listen very closley
e|-------------------------------------------------------------------------|
b|------15-----------17---------14-----15-15-15--17-17--17-17-19-19--------|
G|------12-----------14---------11-----12-12-12--14-14--14-14-16-16--------|
D|-------------------------------------------------------------------------|
A|-------------------------------------------------------------------------|
E|-------------------------------------------------------------------------|

e|-------------------------------------------------------------------------|
b|------15-----------17---------14-----15-15-15----------------------------|
G|------12-----------14---------11-----12-12-12----------------------------|
D|-------------------------------------------------------------------------|
A|-------------------------------------------------------------------------|
E|-------------------------------------------------------------------------|
                                                                
            Then chorus
e|-------------------------------------------------------------------------|
b|------15-15-15-----17---14-14-14-----15-15-15--17-17-17--19-19-19--------|
G|------12-12-12-----14---11-11-11-----12-12-12--14-14-14--16-16-16--------|
D|-------------------------------------------------------------------------|
A|-------------------------------------------------------------------------|
E|-------------------------------------------------------------------------|   
I am missing one part where their is a short solo after the 2nd chorus
            
Submit corrections

comments powered by Disqus
↑ Back to top | Chris Cornell Tabs for Climbing Up The Walls. Lyrics for acoustic guitar and electric guitar. Tablatures and chords are parodies/interpretations of the original songs. You may use it for private study, scholarship, research or language learning purposes only