>
 >
Valse

Valse Guitar Tabs

Chopin Frederic - Valse chords, tabs, tablatures, lyrics

Guitar lessons | Add/correct | Request | Top 50 tabs Artists:  A B C D E F G H I J K L M N O P Q R S T U V W X Y Z 0-9

Valse Guitar Tabs – Chopin Frederic

CD, Sheet music, Poster

Do you like Valse? Share with your friends now
TabsTabs v2
Valse (Op.Posthumous)  - Chopin
~~~~~~~~~~~~~~~~~~~~~
Arranged for guitar by John Kean.

Drop D tuning: DADGBE.
Capo 2nd fret for original key.

3/4 (waltz) time.

INTRO  , .   , . , . , .   , . , . , .   , . , . , .   , . , . , .
E||--------|-------------|-------------|-------------|-------------|
B||--------|-------------|-------------|-------------|-------------|
G||--------|-------------|-------------|-------------|-------------|
D||--------|-0-----------|-0-----------|-0-------0---|-----0-------|
A||----0---|---------0---|---------0---|-----0-------|-0-------0---|
D||--------|-0---------7-|p0---------7-|p0-----7p0---|---7p0-------|

 $ , . , . , .   , . , . , .   , . , . , .   , . , . , .  A , . , . , .
||-------------|-------------|-------------|-------------||-2---0---2---|
||-------------|-------------|-------------|-------------||-3---2---1---|
||---------0-2-|-4-------2---|-4-------2---|-4-------2---||-------------|
||-0---2-4-----|-----2-------|-----4-------|-----2-------||-----0---0---|
||-------------|-----4-------|-----5-------|-----4-------||-------------|
||-0-----------|-------------|-------------|-------------||-0-----------|

  , . , . , .   , . , . , .   , . , . , .   , . , . , .   , . , . , .
|-5-------3---|-------------|-2-----------|-------------|-2-------0---|
|-0-------0---|-3-----5-3---|-------------|-0-----2-0---|-------------|
|-------------|-3-------3---|-2-----------|-1-------1---|-0-------0---|
|-----0---0---|-----0---0---|-----0---0---|-----0---0---|-----2---2---|
|-------------|-------------|-------------|-------------|-0-----------|
|-5-----------|-5-----------|-0-----------|-2-----------|-------------|

  , . , . , .   , . , . , .   , . , . , .   , . , . , .   , . , . , .
|-------------|-----0---1---|-2---0---2---|-5-------3---|-------------|
|-----2---3---|-4---2---2---|-3---2---1---|-0-------0---|-3-----5-3---|
|-2---0---0---|-0---0---0---|-------------|-------------|-3-------3---|
|-----2---2---|-----2---2---|-4---0---0---|-----0---0---|-----0---0---|
|-0-----------|-0-----------|-------------|-------------|-------------|
|-------------|-------------|-0-----------|-5-----------|-5-----------|

  , . , . , .   , . , . , .   , . , . , .   , . , . , .   , . , . , .
|-2-----------|-------------|-2-------0---|-------------|-------------||
|-------------|-0-----2-0---|-------------|---2p0-------|-3-------2---||
|-2-----------|-1-------1---|-0-------0---|-2---0---2---|-------------||
|-----0---0---|-----0---0---|-----2---2---|-----2-------|-4-----------||
|-------------|-------------|-0-----------|-0-------0---|-5-----------||
|-0-----------|-2-----------|-------------|-------------|-----0-------||

 B , . , . , .   , . , . , .   , . , . , .   , . , . , .   , . , . , .
||---------2---|-2-------4---|-7-------5---|-------------|-9---7-------|
||-2-------2---|-----3---3---|-------------|-------------|--------A9---|
||-----2---2---|-----4---4---|-------------|-----7-------|-------------|
||-4-----------|-------------|-----4-------|-----4-------|-----6-------|
||-------------|-2-----------|---------0---|-5-------4---|-8-----------|
||-------------|-------------|-4-----------|-------------|-------------|

  , . , . , .   , . , . , .   , . , . , .   , . , . , .   , . , . , .
|-7---5-------|-5---4---9---|-4-----------|---------2---|-2-------4---|
|--------A7---|-----6-------|-------7-----|-----2---2---|-----3---3---|
|-----6-------|-----4-------|-----6---6---|-----2---2---|-----4---4---|
|-4-----------|-------------|-----7-----7-|s4-----------|-------------|
|-------------|-4-----------|-------------|-------------|-2-----------|
|-------------|-------------|-4-----------|-------------|-------------|

  , . , . , .   , . , . , .   , . , . , .   , . , . , .   , . , . , .
|-7-------5---|-------------|-9---7-------|-7---5-------|-5---4---9---|
|-------------|-------------|--------A9---|--------A7---|-----6-------|
|-------------|-----7-------|-------------|-----6-------|-----4-------|
|-----4-------|-----4-------|-----6-------|-4-----------|-------------|
|---------0---|-5-------4---|-8-----------|-------------|-4-------4---|
|-4-----------|-------------|-------------|-------------|-------------|

  , . , . , .  A', . , . , .   , . , . , .   , . , . , .   , . , . , .
|---------2---||-2---0---2---|-5-------3---|-------------|-2-----------|
|-7---7-7-----||-3---2---1---|-0-------0---|-3-----5-3---|-------------|
|-----6-------||-------------|-------------|-3-------3---|-2-----------|
|-----7-------||-----0---0---|-----0---0---|-----0---0---|-----0---0---|
|-------------||-------------|-------------|-------------|-------------|
|-4-------2---||-0-----------|-5-----------|-5-----------|-0-----------|

  , . , . , .   , . , . , .   , . , . , .   , . , . , .   , . , . , .
|-------------|-2-------0---|-------------|-----0---1---|-2---0---2---|
|-0-----2-0---|-------------|-----2---3---|-4---2---2---|-3---2---1---|
|-1-------1---|-0-------0---|-2---0---0---|-0---0---0---|-------------|
|-----0---0---|-----2---2---|-----2---2---|-----2---2---|-4---0---0---|
|-------------|-0-----------|-0-----------|-0-----------|-------------|
|-2-----------|-------------|-------------|-------------|-0-----------|

  , . , . , .   , . , . , .   , . , . , .   , . , . , .   , . , . , .
|-5-------3---|-------------|-2-----------|-------------|-2-------0---|
|-0-------0---|-3-----5-3---|-------------|-0-----2-0---|-------------|
|-------------|-3-------3---|-2-----------|-1-------1---|-0-------0---|
|-----0---0---|-----0---0---|-----0---0---|-----0---0---|-----2---2---|
|-------------|-------------|-------------|-------------|-0-----------|
|-5-----------|-5-----------|-0-----------|-2-----------|-------------|

  , . , . , .   , . Fine. C , .   , . , . , .   , . , . , .   , . , . , .
|-------------|----------||-----|-------------|-------------|-------------|
|---2h0-------|-3--------||-----|-------------|-------------|---------5---|
|-2---0---2---|----------||-----|-------------|-------------|-----4------7|
|-----2-------|-4--------||-----|-------------|-----5h7-9---|-6h7---7-----|
|-0-------0---|-5--------||-5---|-----4h5h7p5-|-5-----------|-----5---5---|
|-------------|-----0----||-----|-4-----------|-5-----------|-4-----------|

  , . , . , .   , . , . , .   , . , . , .   , . , . , .   , . , . , .
|-------5-7---|-7-----7-5---|-5-----5-3---|-0-----2-0---|-------------|
|-----8-------|-------------|-------------|-------------|-3-----5-3---|
|-7-----------|-----5-------|-----4-------|-----0---0---|-------------|
|---------5---|-----0---0---|-----0---0---|-----2---2---|-----4---4---|
|-----5-------|-------------|-------------|-0-----------|-5-------5---|
|-5-----------|-0-----------|-5-----------|-------------|-------------|

  , . , . , .   , . , . , .   , . , . , .   , . , . , .   , . , . , .
|-------------|-------------|-------------|-------5-7---|-7-----------|
|-------------|-------------|-----------5-|-5---8-------|-----9p7-6h7-|
|-------------|-------------|-----4---5---|---7---------|-------------|
|-------------|-----5h7-9---|-6h7---7-----|---------5---|-----7---9---|
|-5---4h5h7p5-|-5-----------|-----5---5---|-----5-------|-6-----------|
|-0-----------|-5-----------|-4-----------|-5-----------|-------------|

  , . , . , .   , . , . , .   , . , . , .
|-5p3-----2p0-|-------------|-------------||
|-------------|-3---1p0-----|-------------||
|-----4p3-----|---0-------2-|-0-----------|| D.S. $
|-2---5-------|-0-------0---|-0-----------|| al Fine.
|---------4---|---------3---|-2-----------||
|-------------|-------------|-----5-------||





Comments


Popular Chopin Frederic tabs & chords
Nocturne In Cm No 21 Tabs
Nocturne In Fm Tabs
Nocturne In Fm 1 Tabs
Prleude Tabs
Prleude 1 Tabs
Valse 1 Tabs
Valse In Em Tabs


Song lyrics



↑ Back to top | Tablatures and chords are parodies/interpretations of the original songs. You may use it for private study, scholarship, research or language learning purposes only
© 2014 AZChords.com Contact us | Privacy policy | DMCA | Add/correct tabs | Request tabs | Top 50 tabs