» » »

Fucked Reality Tabs (ver.2)

Artists:  A B C D E F G H I J K L M N O P Q R S T U V W X Y Z # 

Fucked Reality Tabs (ver.2)

Choking Victim
Rating:
5/5 (2 votes)

Hard to play? Try these video lessons and learn fast.
                ----------------------------------------------------------------------------
                             f**kED REALITY - Choking Victim
---------------------------------------------------------------------------

Tuning:EADGBe

Intro x5
e|-------------------------------------------------------------------------|
B|-------------------------------------------------------------------------|
G|------1010101010------------888-888--------------------------------------|
D|88888-1010101010-1010101010-888-888--------------------------------------|
A|88888-8-8-8-8-8--1010101010-666-666--------------------------------------|
E|66666------------8-8-8-8-8-----------------------------------------------|

VERSE
e|-------------------------------------------------------------------------|
B|-------------------------------------------------------------------------|
G|---------1010101010101010------------------88888888----------------------|
D|88888888-1010101010101010-1010101010101010-88888888----------------------|
A|88888888-8-8-8-8-8-8-8-8--1010101010101010-66666666----------------------|
E|66666666------------------8-8-8-8-8-8-8-8--------------------------------|

e|-------------------------------------------------------------------------|
B|-------------------------------------------------------------------------|
G|---------1010101010101010------------------88888888----------------------|
D|88888888-1010101010101010-1010101010101010-88888888----------------------|
A|88888888-8-8-8-8-8-8-8-8--1010101010101010-66666666----------------------|
E|66666666------------------8-8-8-8-8-8-8-8--------------------------------|
                                             xxxxxxxx
e|-------------------------------------------------------------------------|
B|-------------------------------------------------------------------------|
G|---------1010101010101010------------------888-888-----------------------|
D|88888888-1010101010101010-1010101010101010-888-888-----------------------|
A|88888888-8-8-8-8-8-8-8-8--1010101010101010-666-666-----------------------|
E|66666666------------------8-8-8-8-8-8-8-8--------------------------------|
   xxxxxxx   x x x x x x x    x x x x x x x  xx  xx 
e|-------------------------------------------------------------------------|
B|-------------------------------------------------------------------------|
G|---------1010101010101010------------------888-888-----------------------|
D|88888888-1010101010101010-1010101010101010-888-888-----------------------|
A|88888888-8-8-8-8-8-8-8-8--1010101010101010-666-666-----------------------|
E|66666666------------------8-8-8-8-8-8-8-8--------------------------------|
   xxxxxxx   x x x x x x x    x x x x x x x  xx  xx 

CHORUS
e|-------------------------------------------------------------------------|
B|-------------------------------------------------------------------------|
G|---------1010101010101010------------------88888888----------------------|
D|88888888-1010101010101010-1010101010101010-88888888----------------------|
A|88888888-8-8-8-8-8-8-8-8--1010101010101010-66666666----------------------|
E|66666666------------------8-8-8-8-8-8-8-8--------------------------------|

e|-------------------------------------------------------------------------|
B|-------------------------------------------------------------------------|
G|---------1010101010101010------------------88888888----------------------|
D|88888888-1010101010101010-1010101010101010-88888888----------------------|
A|88888888-8-8-8-8-8-8-8-8--1010101010101010-66666666----------------------|
E|66666666------------------8-8-8-8-8-8-8-8--------------------------------|
                                             xxxxxxxx
e|-------------------------------------------------------------------------|
B|-------------------------------------------------------------------------|
G|---------1010101010101010------------------88888888----------------------|
D|88888888-1010101010101010-1010101010101010-88888888----------------------|
A|88888888-8-8-8-8-8-8-8-8--1010101010101010-66666666----------------------|
E|66666666------------------8-8-8-8-8-8-8-8--------------------------------|

e|-------------------------------------------------------------------------|
B|-------------------------------------------------------------------------|
G|---------1010101010101010------------------88888888----------------------|
D|88888888-1010101010101010-1010101010101010-88888888----------------------|
A|88888888-8-8-8-8-8-8-8-8--1010101010101010-66666666----------------------|
E|66666666------------------8-8-8-8-8-8-8-8--------------------------------|
                                             xxxxxxxx
CHORUS END x4
e|-------------------------------------------------------------------------|
B|-------------------------------------------------------------------------|
G|---------1010101010101010------------------88888888----------------------|
D|88888888-1010101010101010-1010101010101010-88888888----------------------|
A|88888888-8-8-8-8-8-8-8-8--1010101010101010-66666666----------------------|
E|66666666------------------8-8-8-8-8-8-8-8--------------------------------|

INTRO x2
CHORUS x1
CHORUS END x4
INTRO x4

END ON
e|---|
B|---|
G|---|
D|8~-|
A|8~-|
E|6~-|

| /  slide up
| \  slide down
| h  hammer-on
| p  pull-off
| ~  vibrato
| +  harmonic
| x  Mute note
============================================================================
            
Hard to play? Try these video lessons and learn fast. | Correct




comments powered by Disqus
↑ Back to top | Tablatures and chords are parodies/interpretations of the original songs. You may use it for private study, scholarship, research or language learning purposes only