» » »

Corporate Trash Tabs (ver.1)

Artists:  A B C D E F G H I J K L M N O P Q R S T U V W X Y Z # 

Corporate Trash Tabs (ver.1)

Choking Victim
Rating:
0/5 (0 votes)

Hard to play? Try these video lessons and learn fast.
                Intro-Alog With Bass
--------------------------------|
--------------------------------|
--------------------------------|
--------124222------------------|
440--222------424442242---------|
---22---------------------------|

Verse- Ska Upstrokes Clean
5----2----0----4----5----2----0----4----5----7-----|
5----2----0----6----5----2----0----6----5----7-----|
6-x4-3-x4-1-x4-6-x4-6-x4-3-x4-1-x4-6-x4-6-x4-8-x4--|
7----4----2----6----7----4----2----6----7----9-----|
----------2-------------------2--------------------|
---------------------------------------------------|

Chorus- Distorted
--------|
0-4-5---|
1-5-6---|
2-6-7---|
2-6-7---|
0-4-5---|

Bridge-Ska Upstrokes Clean
4-6-7---|
4-8-9---|
5-8-9---|
6-8-9---|
--------|
--------|

End Solo-Distorted
12-11-12-11-12-11-12-11-11-11-11-11-11-|
---------------------------------------|
---------------------------------------|
---------------------------------------| Repeat
---------------------------------------|
---------------------------------------|
            
Hard to play? Try these video lessons and learn fast. | Correct




comments powered by Disqus
↑ Back to top | Tablatures and chords are parodies/interpretations of the original songs. You may use it for private study, scholarship, research or language learning purposes only