» » »

Chimaira, Taste My Bass tabs (ver.1)

Artists:  A B C D E F G H I J K L M N O P Q R S T U V W X Y Z # 

Taste My Bass tabs (ver.1)

Chimaira Tabs
 Rating:
4/5 (4 votes)
Taste My lessons Tabs too difficult? Try these video lessons and learn fast
                Tuning:
F
C
G
C

Riff 1
[-----------------------------------------]
[-1-1---1h2-1-1--1h2-1-1-1h2--------------]
[-----------------------------------------]
[-----------------------------1-0-1-0-1h2-]

Riff 2
[-----]
[-----]
[-----]
[-2-2-]

Riff 3
[------------------------------------]
[------------------------------------]
[------------------------------------]
[-1-1-2-2-2--6-6-6-2-2-2-1-1-2-2-0-0-]

Riff 4
[-----------------]
[-----------------]
[-----------------]
[-7--3-2--2--5--8-]

Riff 5
[---------------]
[---------------]
[---------------]
[-5-6-7-6-5h6p5-]

Riff 6
[-----------------------]
[-----------------------]
[-----------------------]
[-0-1-1-0-1-1-0-1-1-0-1-]
            
Submit corrections

comments powered by Disqus
↑ Back to top | Chimaira Bass for Taste My. Lyrics for acoustic guitar and electric guitar. Tablatures and chords are parodies/interpretations of the original songs. You may use it for private study, scholarship, research or language learning purposes only