» » »

Chimaira, Split Tabs (ver.2)

Artists:  A B C D E F G H I J K L M N O P Q R S T U V W X Y Z # 

Split Tabs (ver.2)

Chimaira Tabs
Rating:
0/5 (0 votes)
Split lessons Tabs too difficult? Try these video lessons and learn fast
                |----------------------------------|
                  | PLAY ALL WITH A HEAVY DISTORTION |
                  |----------------------------------|
 b - bend
 / \ - slide into or out of 
 ~ - vibrato

 Intro Gtr. 2
|------------|
|------------|
|------------|
|-555--55-55-|
|-555--55-55-|
|-333--33-33-|

 Intro Gtr.1  thoses are not ones those are elevens
|---------------------------------------|
|---------------------------------------|
|---------------------------------------|
|-111111--1111-1111-14141414^/16^161616-|
|-111111--1111-1111-13131313^/15^151515-|
|-111111--1111-1111---------------------|

 Intro II:Gtr. 2 Part I Couples time                x1          then part 1 again    
|------------------------------|------------------------|---------------------------|
|---------------------------5^-|------------------------|------------------------5^-|
|---------------------------5^-|------------------muted-|------------------------5^-|
|-555/6-5/6-5/6-5/6-5/6-5/6-3^-|-55/6-5/6-5/6-5/6---000--|-555/6-5/6-5/6-5/6-5/6-3^-|
|-555/6-5/6-5/6-5/6-5/6-5/6----|-55/6-5/6-5/6-5/6---000--|-555/6-5/6-5/6-5/6-5/6----|
|-333/4-3/4-3/4-3/4-3/4-3/4----|-33/4-3/4-3/4-3/4---000--|-333/4-3/4-3/4-3/4-3/4----|

 Intro II: Gtr.1                       
|------------------------------|------------------------|---------------------------|
|---------------------------5^-|------------------------|---------------------------|
|---------------------------5^-|------------------muted-|-----------------------777-|
|-555/6-5/6-5/6-5/6-5/6-5/6-3^-|-55/6-5/6-5/6-5/6--000--|-555/6-5/6-5/6-5/6-5/6-----|
|-555/6-5/6-5/6-5/6-5/6-5/6----|-55/6-5/6-5/6-5/6--000--|-555/6-5/6-5/6-5/6-5/6-----|
|-333/4-3/4-3/4-3/4-3/4-3/4----|-33/4-3/4-3/4-3/4--000--|-333/4-3/4-3/4-3/4-3/4-----|

                  Those are 12's
|-------------------------------|
|-------------------------------|
|------------------------121212-|
|-55/6-5/6-5/6-5/6--------------|
|-55/6-5/6-5/6-5/6--------------|
|-33/4-3/4-3/4-3/4--------------|


  Verse: Gtr. 2                    
|------------------|
|------------------|
|------------------|
|-7~--77--7~--7777-|
|-7~--77--7~--7777-|
|-5~--55--5~--5555-|

 Verse: Gtr. 1
|--------------------------------|
|--------------------------------|
|--------------------------------|
|-7~--77--x7---7777-|
|-7~--77--x7---7777-|
|-5~--55--x5---5555-|

 Pre-Chorus part I
|----------------------------------------------------------------------------------|
|--------------------------------7777777766666665555555544444444333333322222111111-|
|--------------------------------7777777766666665555555544444444333333322222111111-|
|-7~~~-xx7-x7-x7-x7----------------------------------------------------------------|
|-7~~~-xx7-x7-x7-x7----------------------------------------------------------------|
|-5~~~-xx5-x5-x5-x5----------------------------------------------------------------|

 Pre-Chorus Part II
|-------------------------------------|
|-------------------------------------|
|-------------------------------------|
|-7-xx7-x7-x7-x7--------77-77-77-77-7-|
|-7-xx7-x7-x7-x7--------77-77-77-77-7-|
|-5-xx5-x5-x5-x5--------55-55-55-55-5-|

 Chorus Gtr. 2
|-------------------------------------------------|
|-------------------------------------------------|
|--------------muted------1/6-6-55-43------muted--|
|-8-7-6-5--5-6---3---8----1/6-6-55-43-44-55--3-33-|
|-8-7-6-5--5-6---1---8----------------44-55--1-11-|
|-6-5-4-3--3-4---1---6-----------------------1-11-|

 Chorus Gtr. 1
|-------------------------------------------------------|
|-------------------------------------------------------|
|---------------------muted-----1/6-6-55-43-------muted-|
|-12121212-7-6-5--5-6---3---8---1/6-6-55-43-44-55--3-33-|
|-11111111-7-6-5--5-6---1---8---------------44-55--1-11-|
|----------5-4-3--3-4---1---6----------------------1-11-|


 Bridge I:Gtr. 1 

 Bridge II: Gtr. 1 and Gtr. 2
|---------------------------|-------------------------------------------------------|
|---------------------------|------------------------------121212121211111111111010-|
|---------------------muted-|------------------------------121212121211111111111010-|
|-4--55/6-5/6-5/6-5/6--000--|-555/6-5/6-5/6-5/6-5/6--------101010101010101010101010-|
|-4--55/6-5/6-5/6-5/6--000--|-555/6-5/6-5/6-5/6-5/6---------------------------------|
|-2--33/4-3/4-3/4-3/4--000--|-333/4-3/4-3/4-3/4-3/4---------------------------------|

 Bridge III: Gtr. 2
|--------------------------|
|--------------------------|
|--------------muted-------|
|-8-7-6-5--5-6---3---88888-|
|-8-7-6-5--5-6---1---88888-|
|-6-5-4-3--3-4---1---66666-| 

 Bridge III:Gtr. 1 
|---------------------------------|
|---------------------------------|
|---------------------muted-------|
|-12121212-7-6-5--5-6---3---88888-|
|-11111111-7-6-5--5-6---1---88888-|
|----------5-4-3--3-4---1---66666-|


 Outro: Gtr. 2
|--------------------------------------------------|
|--------------------------------------------------|
|--------------muted-----1/6-6-55-43------muted----|
|-8-7-6-5--5-6---3---8---1/6-6-55-43---44-55--3-33-|
|-8-7-6-5--5-6---1---8-----------------44-55--1-11-|
|-6-5-4-3--3-4---1---6------------------------1-11-|

 Outro:Gtr. 1
|-----------------------------------------------------|
|-----------------------------------------------------|
|---------------------muted-----1/6-6-55-43-------muted-|
|-12121212-7-6-5--5-6---3---8---1/6-6-55-43-44-55---3-33-|
|-11111111-7-6-5--5-6---1---8---------------44-55---1-11-|
|----------5-4-3--3-4---1---6-----------------------1-11-|
            

comments powered by Disqus
↑ Back to top | Chimaira Tabs for Split. Lyrics for acoustic guitar and electric guitar. Tablatures and chords are parodies/interpretations of the original songs. You may use it for private study, scholarship, research or language learning purposes only