>
 >
Lazarus

Lazarus Bass Tabs

Chimaira - Lazarus chords, tabs, tablatures, lyrics

Guitar lessons | Add/correct | Request | Top 50 tabs Artists:  A B C D E F G H I J K L M N O P Q R S T U V W X Y Z 0-9

Lazarus Bass Tabs – Chimaira

CD, Sheet music, Poster

Do you like Lazarus? Share with your friends now
Bass TabsBass Tabs v2TabsTabs v2Tabs v3
Tuning: CGCF

|---------------------|
|---------------------|x3 \
|---------4-----------|    \
|--/--3-------333333--|     \
              ......
                              x3

|-------------------|      /
|-------------------|     /
|------4------------|    /
|--3-------1-1-1-1--|   /
           . . . .

|----------------------------------------|
|----------------------------------------|x1
|---4---------4---------4---------4------|
|-3---3333--3---3333--3---3333--3---3333-|
      ....      ....      ....      ....

|--------------------------|--------------------------|-----------------------------|      
|--------------------------|--------------------------|-----------------------------|  x4        
|----4-----4-------4-----4-|----4-----4-------4-----4-|----4-----4-------4----------|   
|-3-----3-----3-3-----3----|-3-----3-----3-3-----3----|-3-----3-----3-3----1-1-1-1--|        
        .     .       .            .     .       .            .     .      

|-----------------------|
|-----------------------|x2
|-444-333-----444-333---|
|---------444---------4-|
  ... ... ... ... ... 

|-------------------------------------------------------|
|-------------------------------------------------------|x4
|-------------------------------------------------------|
|-333-33h6p333-333-33h6p333-333-33h6p33-333/666\444/777-|
  ... ..   ... ... ..   ... ... ..   .. ... ... ... ...     

|-----------------------|-----------------------|-----------------------|    
|-----------------------|-----------------------|-----------------------|    
|-444-333-----444-333---|-444-333-----444-333---|-444-333-----444-333---|    
|---------444---------4-|---------444---------4-|---------444---------4-|    
  ... ... ... ... ...          . . .

|---------------------------|
|---------------------------|
|-444-333-----------------3-|
|---------444--4-4-4--4\3---| 

|------------------------------|----------------------------------|
|------------------------------|----------------------------------|x4
|------------------------------|----------------------------------|
|-3-4-3---3-3-4-3--(3)-1-11-11-|-3-4-3---3-3-4-3--4-4-6-6-4-4-3-3-|
          .            . .. ..           .
                       ^1's not 11's 

|-----------------|
|-----------------|x3
|-----4-----------|
|-3-------333333--|
          ......

|-------------------|
|-------------------|
|------4------------|
|--3-------1-1-1-1--|
           . . . .

|-------------------------------------------------------|
|-------------------------------------------------------|x4
|-------------------------------------------------------|
|-333-33h6p333-333-33h6p333-333-33h6p33-333/666\444/777-|
  ... ..   ... ... ..   ... ... ..   .. ... ... ... ...  

|-----------------------|-----------------------|-----------------------|    
|-----------------------|-----------------------|-----------------------|    
|-444-333-----444-333---|-444-333-----444-333---|-444-333-----444-333---|    
|---------444---------4-|---------444---------4-|---------444---------4-|    
  ... ... ... ... ...          . . .

|---------------------------|
|---------------------------|
|-444-333-----------------3-|
|---------444--4-4-4--4\3---|  

|------------------------------|----------------------------------|
|------------------------------|----------------------------------|x4
|------------------------------|----------------------------------|
|-3-4-3---3-3-4-3--(3)-1-11-11-|-3-4-3---3-3-4-3--4-4-6-6-4-4-3-3-|
          .            . .. ..           .
                         ^1's not 11's

|--------------------|
|-----------1---1----|
|-------------1---1--|
|-3--4---1~~---------|

|-------------5b^b^--------------|-------------5b^b^----------|
|-----------3------------1---1---|-----------3------------1---|
|---------3----------------1---1-|---------3----------------1-|
|-3-4-3~~------------1~~---------|-3-4-3~~------------1~~-----|

|---------|
|---------|
|---------|
|-3-4-3~~-|

|-------------------------------|
|-------------------------------|x3
|-----6-----4-----3-------------|
|-3-3---3-3---3-3---3-3-3-3-3-3-|
  . .   . .   . .   . . . . . . 

|--------------------------------|
|--------------------------------|
|-----6-----4--------------------|
|-3-3---3-3---3-3--666--4-4--777-|
  . .   . .   . .  ...  . .  ...

|-------------------------------|
|-------------------------------|x3
|-----6-----4-----3-------------|
|-3-3---3-3---3-3---3-3-3-3-3-3-|
  . .   . .   . .   . . . . . . 

|--------------------------------|
|--------------------------------|
|-----6-----4--------------------|  
|-3-3---3-3---3-3--666--4-4--777-|
  . .   . .   . .  ...  . .  ...

|-------------------------------|
|-------------------------------|
|-----6-----4-----3-------------|
|-3-3---3-3---3-3---3-3-3-3-3-3-|
  . .   . .   . .   . . . . . . 

|--------------------------------|
|--------------------------------|
|-----6-----4--------------------|
|-3-3---3-3---3-3--666--4-4--777-|
  . .   . .   . .  ...  . .  ...

|---------------------------|-----------------------------------|
|---------------------------|-----------------------------------| \
|---------------------------|-----------------------------------|  \ 
|-3-4-3--3-3-4-3-3-3b(down)-|-3-4-3--3-3-4-3--4-4-6-6--6b(down)-|   \
         .       .                   .                                 x2
|---------------------------|-----------------------------|         /
|---------------------------|-----------------------------|        /
|---------------------------|-----------------------------|       /
|-3-4-3--3-3-4-3-3-3b(down)-|-3-4-3--3-3-4---4-3-1--4-3-1-|
         .       .                   .         . .  . . .

|------------------------------------------------|
|------------------------------------------------|
|-4~--3~--------4~--3~-------4~--3~--------4~--3-|
|----------4~------------4------------4~---------|

|------------------------------|----------------------------------|
|------------------------------|----------------------------------|x6
|------------------------------|----------------------------------|
|-3-4-3---3-3-4-3--(3)-1-11-11-|-3-4-3---3-3-4-3--4-4-6-6-4-4-3-3-|
          .            . .. ..           .
                         ^1's not 11's 

|-------|
|-------|
|-------|
|-3~~~~-|
 End on





Comments


Popular Chimaira tabs & chords
Army Of Me 2 Tabs
Balls To The Wall Tabs
Cleansation Tabs
Divination 1 Tabs
Down Again 2 Tabs
Impending Doom Tabs
Impending Doom 1 Tabs
Nothing Remains Tabs
On Broken Glass Tabs
Taste My... Tabs


Song lyrics



↑ Back to top | Tablatures and chords are parodies/interpretations of the original songs. You may use it for private study, scholarship, research or language learning purposes only
© 2014 AZChords.com Contact us | Privacy policy | DMCA | Add/correct tabs | Request tabs | Top 50 tabs