» » »

Impending Doom Tabs (ver.1)

Artists:  A B C D E F G H I J K L M N O P Q R S T U V W X Y Z # 

Impending Doom Tabs (ver.1)

Chimaira
Rating:
0/5 (0 votes)

Hard to play? Try these video lessons and learn fast.
                Band: Chimaira
Tune: Drop C

*Update July 29/09: Added to the chorus
as well as the bride sections*

   Intro is bass rumbling the low C open.

   Verse: Clean
D|-------------------------------------------|
A|---------------------------------10--------|
F|---777--9--9h10p9---7--7-9--9h10----10-9---|
C|-------------------------------------------|
G|-------------------------------------------|
C|-------------------------------------------|

                                             *distorted*
D|----------------------------------------------------------|
A|---------------------------------10-------------10--------|
F|---7--7-9--9h10p9---7--7-9--9h10----10-9---9h10----10-9---|
C|----------------------------------------------------------|
G|----------------------------------------------------------|
C|----------------------------------------------------------|


   Chorus:
D|----------------------------------------------------------|
A|----------------------------------------------------------|
F|---7--5--77-5-7----------7----7-7/9-9----5\3-3------------|
C|---7--5--77-5-7----------7----7-7/9-9----5\3-3------------|
G|---5--3--55-3-5----------5----5-5/7-7--0-3\1-1------------|
C|----------------0-0-0-0-----0----------0-------00000000---|


D|--------------------------------------------------|
A|--------------------------------------------------|
F|---3-2--------------------------------------------|
C|---3-2--55-3-5----9---7---5---7--77-5-00----------|
G|---1-0--55-3-5--0-9-0-7-0-5-0-7--77-5-00----------|
C|--------55-3-5--0-9-0-7-0-5-0-7--77-5-000000000---|


   Verse: Clean
                                             *distorted*
D|----------------------------------------------------------|
A|---------------------------------10-------------10--------|
F|---7--7-9--9h10p9---7--7-9--9h10----10-9---9h10----10-9---|
C|----------------------------------------------------------|
G|----------------------------------------------------------|
C|----------------------------------------------------------|

   Chorus:
D|----------------------------------------------------------|
A|----------------------------------------------------------|
F|---7--5--77-5-7----------7----7-7/9-9----5\3-3------------|
C|---7--5--77-5-7----------7----7-7/9-9----5\3-3------------|
G|---5--3--55-3-5----------5----5-5/7-7--0-3\1-1------------|
C|----------------0-0-0-0-----0----------0-------00000000---|


D|--------------------------------------------------|
A|--------------------------------------------------|
F|---3-2--------------------------------------------|
C|---3-2--55-3-5----9---7---5---7--77-5-00----------|
G|---1-0--55-3-5--0-9-0-7-0-5-0-7--77-5-00----------|
C|--------55-3-5--0-9-0-7-0-5-0-7--77-5-000000000---|

Bridge:
D|----------------------------------------|
A|----------------------------------------|
F|----------------------------------------|
C|----------0--------2--------3---5~~-7~~-|
G|----------0--------2--------3---5~~-7~~-|
C|---000000-0-222222-2-333333-3---5~~-7~~-|
 |
 |
D|---
A|---
F|---
C|---
G|---
C|---


   Breakdown:
D|-----------------------------------|
A|-----------------------------------| *just repeat a few
F|-----------------------------------|  times with harmonics
C|---7-9-5---------------------------|  and also some bends
G|-------------7-9-5----3-5-1--3-5---|  after each time through
C|---------000-------00--------3-5---|


   Chorus:
D|----------------------------------------------------------|
A|----------------------------------------------------------|
F|---7--5--77-5-7----------7----7-7/9-9----5\3-3------------|
C|---7--5--77-5-7----------7----7-7/9-9----5\3-3------------|
G|---5--3--55-3-5----------5----5-5/7-7--0-3\1-1------------|
C|----------------0-0-0-0-----0----------0-------00000000---|


D|--------------------------------------------------|
A|--------------------------------------------------|
F|---3-2--------------------------------------------|
C|---3-2--55-3-5----9---7---5---7--77-5-00----------|
G|---1-0--55-3-5--0-9-0-7-0-5-0-7--77-5-00----------|
C|--------55-3-5--0-9-0-7-0-5-0-7--77-5-000000000---|

   Solo:
D|---------------------------------|
A|---------------------------------|
F|---101010-9-9--------------------|
C|--------------10-10h12-10-10-12--|
G|---------------------------------|
C|---------------------------------|
            
Hard to play? Try these video lessons and learn fast. | Correct




comments powered by Disqus
↑ Back to top | Tablatures and chords are parodies/interpretations of the original songs. You may use it for private study, scholarship, research or language learning purposes only