>
 >
Crawl

Crawl Guitar Tabs

Chimaira - Crawl chords, tabs, tablatures, lyrics

Guitar lessons | Add/correct | Request | Top 50 tabs Artists:  A B C D E F G H I J K L M N O P Q R S T U V W X Y Z 0-9

Crawl Guitar Tabs – Chimaira

CD, Sheet music, Poster

Do you like Crawl? Share with your friends now
Bass TabsTabs
============================================================================

Had a look for this song and found there were no tabs. Since I figured I'd have to tab 
all out by ear I figured I may as well use this site as a place to store it. So, here goes...

SIMPLY PICK EITHER GUITAR 1 OR 2 AND PLAY THE RIFFS IN THE ORDER TOP TO BOTTOM. SOME 
ARE REPEATED, BUT THIS IS ACCOUNTED FOR. SIMPLY PLAY THE TAB TOP TO BOTTOM, IT IS ALREADY 
THE CORRECT ORDER.

============================================================================
NOTE: This is a 2 Guitar Piece


Tuning:  Drop C (CGCFAD)

============================================================================

Intro:

Guitar 1
D|-----------------|
A|-----------------|
F|-----------------|
C|----feedback-----|
G|-----------------|
C|-----\\\\\\\\\\\\|
       (pick slide)

Guitar 2
D|-----------------|
A|-----------------|
F|-----------------|
C|----feedback-----|
G|-----------------|
C|-----------------|

Riff 1

Guitar 1
D|--------------------------------------|
A|--------------------------------------|
F|--------------------------------------|
C|-3p0-0-0-6\3-0-9-9-6-5h8p5h8-4h7p4h7--| x2
G|-3p0-0-0-6\3-0-9-9-6------------------|
C|-3p0-0-0-6\3-0-9-9-6------------------|
     . . .     .

Guitar 2
D|--------------------------------------|
A|--------------------------------------|
F|--------------------------------------|
C|----feedback--------------------------| x2
G|--------------------------------------|
C|--------------------------------------|

Riff 2

Guitar 1
D|--------------------------------------|
A|--------------------------------------|
F|--------------------------------------|
C|-3p0-0-0-6\3-0-9-9-6-5h8p5h8-4h7p4h7--| x2
G|-3p0-0-0-6\3-0-9-9-6------------------|
C|-3p0-0-0-6\3-0-9-9-6------------------|
     . . .     .

Guitar 2
D|--------------------------------------|
A|--------------------------------------|
F|--------------------------------------|
C|-0------------------------------------| x2
G|-0-let ring---------------------------|
C|-0------------------------------------|

Riff 3 (Pre-Verse)

Guitar 1
D|--------------------------------------|-------------------------------|
A|--------------------------------------|-------------------------------|
F|--------------------------------------|-------------------------------|
C|-3p0-0-0-6\3-0-9-9-6-5h8p5h8-4h7p4h7--|-3p0-0-0-6\3-0-9-9-6-0-3-0-2-0-|x2
G|-3p0-0-0-6\3-0-9-9-6------------------|-3p0-0-0-6\3-0-9-9-6-0-3-0-2-0-|
C|-3p0-0-0-6\3-0-9-9-6------------------|-3p0-0-0-6\3-0-9-9-6-0-3-0-2-0-|
     . . .     .                            . . .     .       . . . . .

Guitar 2
D|--------------------------------------|
A|-10^-let ring-------------------------|
F|--------------------------------------|
C|--------------------------------------| x4
G|--------------------------------------|
C|--------------------------------------|

Riff 4 (Verse)

Guitar 1
D|--------------------------------------|-------------------------------|
A|--------------------------------------|-------------------------------|
F|--------------------------------------|-------------------------------|
C|-3p0-0-0-6\3-0-9-9-6-5h8p5h8-4h7p4h7--|-3p0-0-0-6\3-0-9-9-6-0-3-0-2-0-|x2
G|-3p0-0-0-6\3-0-9-9-6------------------|-3p0-0-0-6\3-0-9-9-6-0-3-0-2-0-|
C|-3p0-0-0-6\3-0-9-9-6------------------|-3p0-0-0-6\3-0-9-9-6-0-3-0-2-0-|
     . . .     .                            . . .     .       . . . . .

Guitar 2
D|--------------------------------------|-------------------------------|
A|--------------------------------------|-------------------------------|
F|--------------------------------------|-------------------------------|
C|-3p0-0-0-6\3-0-9-9-6-5h8p5h8-4h7p4h7--|-3p0-0-0-6\3-0-9-9-6-0-3-0-2-0-|x2
G|-3p0-0-0-6\3-0-9-9-6------------------|-3p0-0-0-6\3-0-9-9-6-0-3-0-2-0-|
C|-3p0-0-0-6\3-0-9-9-6------------------|-3p0-0-0-6\3-0-9-9-6-0-3-0-2-0-|
     . . .     .                            . . .     .       . . . . .

Riff 5 (Pre-Chorus)

Guitar 1
D|--------------------------------------|
A|--------------------------------------|
F|--------------------------------------|
C|-3p0-0-0-6\3-0-9-9-6-5h8p5h8-4h7p4h7--| x2
G|-3p0-0-0-6\3-0-9-9-6------------------|
C|-3p0-0-0-6\3-0-9-9-6------------------|
     . . .     .

Guitar 2
D|--------------------------------------|--------------------------------|
A|--------------------------------------|--------------------------------|
F|--------------------------------------|--------------------------------|
C|-------------feedback-----------------|-0------------------------------|
G|--------------------------------------|-0--let ring--------------------|
C|--------------------------------------|-0------------------------------|

Riff 6 (Chorus)

Guitar 1
D|---------------------------------|------------------------------|
A|---------------------------------|------------------------------|
F|---------------------------------|------------------------------|
C|-0---0-3p0-6-3---0---0-8-6-3-9^--|-0---0-3p0-6-3---0---0-8-6-3^-|
G|-0---0-3p0-6-3---0---0-8-6-3-9^--|-0---0-3p0-6-3---0---0-8-6-3^-|
C|-0---0-3p0-6-3---0---0-8-6-3-9^--|-0---0-3p0-6-3---0---0-8-6-3^-|

Guitar 2
D|---------------------------------|------------------------------|
A|---------------------------------|------------------------------|
F|---------------------------------|------------------------------|
C|-0---0-3p0-6-3---0---0-8-6-3-9^--|-0---0-3p0-6-3---0---0-8-6-3^-|
G|-0---0-3p0-6-3---0---0-8-6-3-9^--|-0---0-3p0-6-3---0---0-8-6-3^-|
C|-0---0-3p0-6-3---0---0-8-6-3-9^--|-0---0-3p0-6-3---0---0-8-6-3^-|

Riff 3 (Pre-Verse)

Guitar 1
D|--------------------------------------|-------------------------------|
A|--------------------------------------|-------------------------------|
F|--------------------------------------|-------------------------------|
C|-3p0-0-0-6\3-0-9-9-6-5h8p5h8-4h7p4h7--|-3p0-0-0-6\3-0-9-9-6-0-3-0-2-0-|x2
G|-3p0-0-0-6\3-0-9-9-6------------------|-3p0-0-0-6\3-0-9-9-6-0-3-0-2-0-|
C|-3p0-0-0-6\3-0-9-9-6------------------|-3p0-0-0-6\3-0-9-9-6-0-3-0-2-0-|
     . . .     .                            . . .     .       . . . . .

Guitar 2
D|--------------------------------------|
A|-10^-let ring-------------------------|
F|--------------------------------------|
C|--------------------------------------| x4
G|--------------------------------------|
C|--------------------------------------|

Riff 4 (Verse)

Guitar 1
D|--------------------------------------|------------|-------------------|
A|--------------------------------------|------------|-first repeat only-|
F|--------------------------------------|------------|-------------------|
C|-3p0-0-0-6\3-0-9-9-6-5h8p5h8-4h7p4h7--|-3p0-0-0-6\3-0-9-9-6-0-3-0-2-0--|x2
G|-3p0-0-0-6\3-0-9-9-6------------------|-3p0-0-0-6\3-0-9-9-6-0-3-0-2-0--|
C|-3p0-0-0-6\3-0-9-9-6------------------|-3p0-0-0-6\3-0-9-9-6-0-3-0-2-0--|
     . . .     .                            . . .     .       . . . . .

Guitar 2
D|--------------------------------------|------------|-------------------|
A|--------------------------------------|------------|-first repeat only-|
F|--------------------------------------|------------|-------------------|
C|-3p0-0-0-6\3-0-9-9-6-5h8p5h8-4h7p4h7--|-3p0-0-0-6\3-0-9-9-6-0-3-0-2-0--|x2
G|-3p0-0-0-6\3-0-9-9-6------------------|-3p0-0-0-6\3-0-9-9-6-0-3-0-2-0--|
C|-3p0-0-0-6\3-0-9-9-6------------------|-3p0-0-0-6\3-0-9-9-6-0-3-0-2-0--|
     . . .     .                            . . .     .       . . . . .

Riff 7 (Pre-chorus Fill)

Guitar 1
D|-------------|
A|-------------|
F|-------------|
C|-3----0-6-3--|
G|-3----0-6-3--|
C|-3----0-6-3--|

Guitar 2
D|-------------|
A|-------------|
F|-------------|
C|-3----0-6-3--|
G|-3----0-6-3--|
C|-3----0-6-3--|

Riff 6 (Chorus)

Guitar 1
D|---------------------------------|------------------------------|
A|---------------------------------|------------------------------|
F|---------------------------------|------------------------------|
C|-0---0-3p0-6-3---0---0-8-6-3-9^--|-0---0-3p0-6-3---0---0-8-6-3^-|
G|-0---0-3p0-6-3---0---0-8-6-3-9^--|-0---0-3p0-6-3---0---0-8-6-3^-|
C|-0---0-3p0-6-3---0---0-8-6-3-9^--|-0---0-3p0-6-3---0---0-8-6-3^-|

Guitar 2
D|---------------------------------|------------------------------|
A|---------------------------------|------------------------------|
F|---------------------------------|------------------------------|
C|-0---0-3p0-6-3---0---0-8-6-3-9^--|-0---0-3p0-6-3---0---0-8-6-3^-|
G|-0---0-3p0-6-3---0---0-8-6-3-9^--|-0---0-3p0-6-3---0---0-8-6-3^-|
C|-0---0-3p0-6-3---0---0-8-6-3-9^--|-0---0-3p0-6-3---0---0-8-6-3^-|

Riff 8 (Breakdown)

Guitar 1
D|--------------|
A|--------------|
F|--------------|
C|-0------------| x2
G|-0--let ring--|
C|-0------------|

Guitar 2
D|--------------|
A|--------------|
F|--------------|
C|-0------------| x2
G|-0--let ring--|
C|-0------------|

Riff 9 (Breakdown II)

Guitar 1
D|--------------------------------|
A|--------------------------------|
F|--------------------------------|
C|-0-2-3-0-3-5-0-5--6-8-0-5-7-6-8-| x2
G|-0-2-3-0-3-5-0-5--6-8-0-5-7-6-8-|
C|-0-2-3-0-3-5-0-5--6-8-0-5-7-6-8-|
   . . . . . . . .  . . . . . . .

Guitar 2
D|--------------------------------|
A|--------------------------------|
F|--------------------------------|
C|-0------------------------------| x2
G|-0--let ring--------------------|
C|-0------------------------------|

Riff 10 (Breakdown III)

Guitar 1
D|--------------------------------|
A|--------------------------------|
F|--------------------------------|
C|-0-2-3-0-3-5-0-5--6-8-0-5-7-6-8-| x2
G|-0-2-3-0-3-5-0-5--6-8-0-5-7-6-8-|
C|-0-2-3-0-3-5-0-5--6-8-0-5-7-6-8-|
   . . . . . . . .  . . . . . . .

Guitar 2
D|--------------------------------|
A|--------------------------------|
F|--------------------------------|
C|-0-2-3-0-3-5-0-5--6-8-0-5-7-6-8-| x2
G|-0-2-3-0-3-5-0-5--6-8-0-5-7-6-8-|
C|-0-2-3-0-3-5-0-5--6-8-0-5-7-6-8-|
   . . . . . . . .  . . . . . . .

Riff 11 (Breakdown IIV)

Guitar 1
D|--------------------------------|
A|--------------------------------|
F|--------------------------------|
C|-0-2-3-0-3-5-0-5--6-8-0-5-7-6-8-| x3
G|-0-2-3-0-3-5-0-5--6-8-0-5-7-6-8-|
C|-0-2-3-0-3-5-0-5--6-8-0-5-7-6-8-|

Guitar 2
D|--------------------------------|
A|--------------------------------|
F|--------------------------------|
C|-0-2-3-0-3-5-0-5--6-8-0-5-7-6-8-| x3
G|-0-2-3-0-3-5-0-5--6-8-0-5-7-6-8-|
C|-0-2-3-0-3-5-0-5--6-8-0-5-7-6-8-|

Riff 12 (Pre-Chorus II)

Guitar 1
D|-----------------------------|
A|-----------------------------|
F|-----------------------------|
C|-0-2-3-0-3-5-0-5--5-5--5-5-5-|
G|-0-2-3-0-3-5-0-5--5-5--5-5-5-|
C|-0-2-3-0-3-5-0-5--5-5--5-5-5-|

Guitar 2
D|-----------------------------|
A|-----------------------------|
F|-----------------------------|
C|-0-2-3-0-3-5-0-5--5-5--5-5-5-|
G|-0-2-3-0-3-5-0-5--5-5--5-5-5-|
C|-0-2-3-0-3-5-0-5--5-5--5-5-5-|

Riff 6 (Chorus)

Guitar 1
D|---------------------------------|--------------------------------|
A|---------------------------------|--------------------------------|
F|---------------------------------|--------------------------------|
C|-0---0-3p0-6-3---0---0-8-6-3-9^--|-0---0-3p0-6-3---0---0-8-6-3-9^-|
G|-0---0-3p0-6-3---0---0-8-6-3-9^--|-0---0-3p0-6-3---0---0-8-6-3-9^-|
C|-0---0-3p0-6-3---0---0-8-6-3-9^--|-0---0-3p0-6-3---0---0-8-6-3-9^-|

Guitar 2
D|---------------------------------|--------------------------------|
A|---------------------------------|--------------------------------|
F|---------------------------------|--------------------------------|
C|-0---0-3p0-6-3---0---0-8-6-3-9^--|-0---0-3p0-6-3---0---0-8-6-3-9^-|
G|-0---0-3p0-6-3---0---0-8-6-3-9^--|-0---0-3p0-6-3---0---0-8-6-3-9^-|
C|-0---0-3p0-6-3---0---0-8-6-3-9^--|-0---0-3p0-6-3---0---0-8-6-3-9^-|

Riff 13 (Chorus II)

Guitar 1
D|------------------------------------------|--------------------------------------------|
A|------------------------------------------|--------------------------------------------|
F|------------------------------------------|--------------------------------------------|
C|-0-0-0-0-0-3p0-6-3--0-0-0-0-0-0-8-6-3-9^--|-0-0-0-0-0-3p0-6-3--0-0-0-0-0-0-8-6-3-9^----|
G|-0-0-0-0-0-3p0-6-3--0-0-0-0-0-0-8-6-3-9^--|-0-0-0-0-0-3p0-6-3--0-0-0-0-0-0-8-6-3-9^----|
C|-0-0-0-0-0-3p0-6-3--0-0-0-0-0-0-8-6-3-9^--|-0-0-0-0-0-3p0-6-3--0-0-0-0-0-0-8-6-3-9^----|
     . . .              . . . .                 . . .              . . . .
Guitar 2
D|------------------------------------------|--------------------------------------------|
A|------------------------------------------|--------------------------------------------|
F|------------------------------------------|--------------------------------------------|
C|-0-0-0-0-0-3p0-6-3--0-0-0-0-0-0-8-6-3-9^--|-0-0-0-0-0-3p0-6-3--0-0-0-0-0-0-8-6-3-9^----|
G|-0-0-0-0-0-3p0-6-3--0-0-0-0-0-0-8-6-3-9^--|-0-0-0-0-0-3p0-6-3--0-0-0-0-0-0-8-6-3-9^----|
C|-0-0-0-0-0-3p0-6-3--0-0-0-0-0-0-8-6-3-9^--|-0-0-0-0-0-3p0-6-3--0-0-0-0-0-0-8-6-3-9^----|
     . . .              . . . .                 . . .              . . . .

Riff 14 (Outro)

Guitar 1
D|--------------------------------------|
A|--------------------------------------|
F|--------------------------------------|
C|-3p0-0-0-6\3-0-9-9-6-5h8p5h8-4h7p4h7--| x3
G|-3p0-0-0-6\3-0-9-9-6------------------|
C|-3p0-0-0-6\3-0-9-9-6------------------|
     . . .     .

Guitar 2
D|--------------------------------------|
A|--------------------------------------|
F|--------------------------------------|
C|-3p0-0-0-6\3-0-9-9-6-5h8p5h8-4h7p4h7--| x3
G|-3p0-0-0-6\3-0-9-9-6------------------|
C|-3p0-0-0-6\3-0-9-9-6------------------|
     . . .     .

Riff 15 (Final Outro Bar)

Guitar 1
|-------------------------------|---|
|-------------------------------|---|
|-------------------------------|---|
|-3p0-0-0-6\3-0-9-9-6-0-3-0-2-0-|-0-|
|-3p0-0-0-6\3-0-9-9-6-0-3-0-2-0-|-0-|
|-3p0-0-0-6\3-0-9-9-6-0-3-0-2-0-|-0-|
    . . .     .       . . . . .

Guitar 2
D|------------------------------|---|
A|-10^-let ring-----------------|---|
F|------------------------------|---|
C|------------------------------|-0-|
G|------------------------------|-0-|
C|------------------------------|-0-|

| /  slide up
| \  slide down
| h  hammer-on
| p  pull-off
| ~  vibrato
| +  harmonic
| x  Mute note
| .  Palm Mute
============================================================================





Comments


Popular Chimaira tabs & chords
Pure Hatred 1 Bass Tabs
Bloodlust Tabs
Divination 1 Tabs
Down Again 2 Tabs
Implements Of Destruction Tabs
Refuse To See Tabs
Resurrection 1 Tabs
Split Tabs
The Heart Of It All Tabs
Trimmed Tabs


Song lyrics



↑ Back to top | Tablatures and chords are parodies/interpretations of the original songs. You may use it for private study, scholarship, research or language learning purposes only
© 2014 AZChords.com Contact us | Privacy policy | DMCA | Add/correct tabs | Request tabs | Top 50 tabs