» » »

Crawl Bass tabs (ver.1)

Artists:  A B C D E F G H I J K L M N O P Q R S T U V W X Y Z # 

Crawl Bass tabs (ver.1)

Chimaira
Rating:
0/5 (0 votes)

Hard to play? Try these video lessons and learn fast.
                tuning: drop c (C,G,C,F(low to high))

intro/prechorous
|---||-------|
|---||-------|
|---||-------|
|-0-||-0\6-0-|

|-------------------------------------|
|-------------------------------------|
|---------------------5h8p5h8-4h7p4h7-|
|-0-0-0-0-6/3-0-9-9-6-----------------|

|-------------------------------|
|-------------------------------|
|-------------------------------|
|-0-0-0-0-6/3-0-9-9-6-0-3-0-1-0-|

(do this right before the prechorous part)
|-----------------|
|-----------------|
|-----------------|
|-0-0-0-0-6/3-0-3-|

chorous
|----------------------------------|
|--------0---------------0---------|
|------0---0-----------0---0-------|
|-0--0-------6/3--0--0-------6/3\9-|

bridge(do the intro a couple of times)
|---------------------------------|
|---------------------------------|
|-------------------0-1-2---3-4-5-|
|-0-1-3-0-3-4-0-6-0-------0-------|

|------------------------|
|------------------------|
|------------------------|
|-0-1-3-0-3-4-0-3-33-333-|

|-------------------------------------------|
|-------------0-------------------0---------|
|-----------0---0---------------0---0-------|
|-0-0-0-0-0-------6/3-0-0-0-0-0-------6/3\9-|

then do the first part of the verse a couple of timesand the second part the very last time
            
Hard to play? Try these video lessons and learn fast. | Correct




comments powered by Disqus
↑ Back to top | Tablatures and chords are parodies/interpretations of the original songs. You may use it for private study, scholarship, research or language learning purposes only