>
 >
Cleansation 2

Cleansation 2 Bass Tabs

Chimaira - Cleansation 2 chords, tabs, tablatures, lyrics

Guitar lessons | Add/correct | Request | Top 50 tabs Artists:  A B C D E F G H I J K L M N O P Q R S T U V W X Y Z 0-9

Cleansation 2 Bass Tabs – Chimaira

CD, Sheet music, Poster

Do you like Cleansation 2? Share with your friends now
Bass TabsBass Tabs v2Bass Tabs v3TabsTabs v2
Chimaira - Cleansation

Tuning: B E A D G

This is the kool and 1st track to Chimaira's "The Impossibility Of Reason" album,
i hope you enjoy it, as it is a great song and quite good
to play. If theres any problems plz correct it...

A Change in the song, which sounds better, enjoy...


No Bass for 16 seconds (0:00-0:16)

Bass Intro 0:16 x8
G|---------------| 
D|---------------| 
A|---------------| 
E|---------------| 
B|-0-3-2--0-2-1--| 

Bass Intro-2 0:26 x4
G|----------------------------| 
D|----------------------------| 
A|----------------------------| 
E|----------------------------| 
B|-0-3-2--0-2-1--2-2-2-2-1--1-| 

Verse 0:36 x3
G|-------------------------------| 
D|-------------------------------| 
A|-------------------------------| 
E|-------------------------------| 
B|-0-3-2--0-2-1--2-1-0-0-0-0-0-0-| 

Verse-2 0:44
G|------------------------------| 
D|------------------------------| 
A|------------------------------| 
E|------------------------------| 
B|-0-3-2--0-2-1--2-1-0--0--0--0-| 

Verse 0:46 x3
G|-------------------------------| 
D|-------------------------------| 
A|-------------------------------| 
E|-------------------------------| 
B|-0-3-2--0-2-1--2-1-0-0-0-0-0-0-| 

Verse-2 0:54
G|------------------------------| 
D|------------------------------| 
A|------------------------------| 
E|------------------------------| 
B|-0-3-2--0-2-1--2-1-0--0--0--0-| 

Pre Chorus 0:57
G|------------------------------------------------------------------| 
D|------------------------------------------------------------------| 
A|------------------------------------------------------------------| 
E|------------------------------------------------------------------| 
B|-1-0-0-0-0-0-0-0-3-3-3-3-4-4-4-4--1-0-0-0-0-0-0-0-4-4-4-4-5-5-5-5-| 

Pre Chorus-2 1:02
G|------------------------------------------------------------------| 
D|------------------------------------------------------------------| 
A|------------------------------------------------------------------| 
E|------------------------------------------------------------------| 
B|-1-0-0-0-0-0-0-0-5-5-5-5-6-6-6-6--1-0-0-0-0-0-0-0-6-6-6-6-7-7-7-7-| 

Chorus 1:07 x8
G|------------------------| 
D|------------------------| 
A|------------------------| 
E|------------------------| 
B|-2-1--0-0--0-0-0--1-1-4-| 

No Bass for 2 seconds (1:27-1:29)

Pre Verse 1:29 x7
G|---------------| 
D|---------------| 
A|---------------| 
E|---------------| 
B|-0-3-2--0-2-1--| 

Verse 1:38 x3
G|------------------------------| 
D|------------------------------| 
A|------------------------------| 
E|------------------------------| 
B|-0-3-2--0-2-1--2-1-0-0-0-0-0-0| 

Verse-2 1:46
G|------------------------------| 
D|------------------------------| 
A|------------------------------| 
E|------------------------------| 
B|-0-3-2--0-2-1--2-1-0--0--0--0-| 

Verse 1:48 x3
G|------------------------------| 
D|------------------------------| 
A|------------------------------| 
E|------------------------------| 
B|-0-3-2--0-2-1--2-1-0-0-0-0-0-0| 

Verse-2 1:56
G|------------------------------| 
D|------------------------------| 
A|------------------------------| 
E|------------------------------| 
B|-0-3-2--0-2-1--2-1-0--0--0--0-| 

Pre Chorus 1:59
G|------------------------------------------------------------------| 
D|------------------------------------------------------------------| 
A|------------------------------------------------------------------| 
E|------------------------------------------------------------------| 
B|-1-0-0-0-0-0-0-0-3-3-3-3-4-4-4-4--1-0-0-0-0-0-0-0-4-4-4-4-5-5-5-5-| 

Pre Chorus-2 2:03
G|------------------------------------------------------------------| 
D|------------------------------------------------------------------| 
A|------------------------------------------------------------------| 
E|------------------------------------------------------------------| 
B|-1-0-0-0-0-0-0-0-5-5-5-5-6-6-6-6--1-0-0-0-0-0-0-0-6-6-6-6-7-7-7-7-| 

Chorus 2:09 x8
G|------------------------| 
D|------------------------| 
A|------------------------| 
E|------------------------| 
B|-2-1--0-0--0-0-0--1-1-4-| 

No Bass for 10 seconds (2:30-2:40)

Bridge 2:40 
G|------------------------------------------------------------------| 
D|------------------------------------------------------------------| 
A|------------------------------------------------------------------| 
E|------------------------------------------------------------------| 
B|-1-0-0-0-0-0-0-0-3-3-3-3-4-4-4-4--1-0-0-0-0-0-0-0-0-2---0-3-3-3-3-| 

Bridge-2 2:45 
G|---------------------------------------------------------------| 
D|---------------------------------------------------------------| 
A|---------------------------------------------------------------| 
E|---------------------------------------------------------------| 
B|-1-0-0-0-0-0-0-0-3-3-3-3-4-4-4-4--1-0-0-0-0-0-0-0-1-1--1-4/6/2-| 

Bridge-1 2:51 x2
G|----------------------------| 
D|----------------------------|
A|----------------------------|
E|----------------------------| 
B|-1--1-1---0-3-3-3-3-4-4-4-4-| 

Bridge-3 2:56 
G|------------------------------------------------------------------| 
D|------------------------------------------------------------------| 
A|------------------------------------------------------------------| 
E|------------------------------------------------------------------| 
B|-1-0-0-0-0-0-0-0-3-3-3-3-4-4-4-4--1-0-0-0-0-0-0-0-4-4-4-4-5-5-5-5-| 

Pre Chorus 3:01
G|------------------------------------------------------------------| 
D|------------------------------------------------------------------| 
A|------------------------------------------------------------------| 
E|------------------------------------------------------------------| 
B|-1-0-0-0-0-0-0-0-3-3-3-3-4-4-4-4--1-0-0-0-0-0-0-0-4-4-4-4-5-5-5-5-| 

Pre Chorus-2 3:06
G|------------------------------------------------------------------| 
D|------------------------------------------------------------------| 
A|------------------------------------------------------------------| 
E|------------------------------------------------------------------| 
B|-1-0-0-0-0-0-0-0-5-5-5-5-6-6-6-6--1-0-0-0-0-0-0-0-6-6-6-6-7-7-7-7-| 

Chorus 3:11 x8
G|------------------------| 
D|------------------------| 
A|------------------------| 
E|------------------------| 
B|-2-1--0-0--0-0-0--1-1-4-| 

Pre Verse 3:34 x7
G|---------------| 
D|---------------| 
A|---------------| 
E|---------------| 
B|-0-3-2--0-2-1--| 

No Bass for 18 seconds (3:43-4:01)

Outro 4:01 x2
G|---------------| 
D|---------------| 
A|---------------| 
E|---------------| 
B|-0-3-2--0-2-1--| 

Enjoy this tab and rate it also plz...





Comments


Popular Chimaira tabs & chords
Clayden 1 Tabs
Crawl Tabs
Down Again 3 Tabs
Lumps 1 Tabs
On Broken Glass Intro 1 Tabs
Overlooked Tabs
Painting The White To Grey 2 Tabs
Raining Blood Tabs
Sphere 1 Tabs
The Venom Inside Tabs


Song lyrics



↑ Back to top | Tablatures and chords are parodies/interpretations of the original songs. You may use it for private study, scholarship, research or language learning purposes only
© 2014 AZChords.com Contact us | Privacy policy | DMCA | Add/correct tabs | Request tabs | Top 50 tabs