>
 >
Bloodlust

Bloodlust Guitar Tabs

Chimaira - Bloodlust chords, tabs, tablatures, lyrics

Guitar lessons | Add/correct | Request | Top 50 tabs Artists:  A B C D E F G H I J K L M N O P Q R S T U V W X Y Z 0-9

Bloodlust Guitar Tabs – Chimaira

CD, Sheet music, Poster

Do you like Bloodlust? Share with your friends now
TabsTabs v2
ALBUM:Chimaira
TAB DATE:August 14-15, 2005
TUNING: C G C F A D
      (Top to Bottom)

The most impotant thing to this tab is the tuning
It Must Be In C G C F A D for this tab 
so tune your guitars and enjoy this tab it might be a little off
but if you can correct it go ahead 
and RATE THIS TAB

Intro:Guitar 1
|-----------------------------------------------------|
|-----------------------------------------------------|
|-----------------------------------------------------|
|--7-----10-----12-----15-----7-----10-----12-----15--|
|--5------8-----10-----13-----5------8-----10-----13--|
|-----------------------------------------------------|

|-----------------------------------------------------|
|-----------------------------------------------------|
|-----------------------------------------------------|
|--7-----10-----12-----15-----7-----10-----12-----15--|
|--5------8-----10-----13-----5------8-----10-----13--|
|-----------------------------------------------------|
Guitar 2
|-----------------------------------------------------|
|-----------------------------------------------------|
|-----------------------------------------------------|
|-----------------------------------------------------|
|--0-------------------5----7-8-8-8--8~----------8-5--|
|--0-------------------5----7-8-8-8--8~----------8-5--|
                              . .                .
|-----------------------------------------------------|
|-----------------------------------------------------|
|-----------------------------------------------------|
|-----------------------------------------------------|
|--0-------------5-----7----7-8-8-8--8~------8-7-5-7--|
|--0-------------5-----7----7-8-8-8--8~------8-7-5-7--|
                              . .            . . . . 
|-----------------------------------------------------|
|-----------------------------------------------------|
|-----------------------------------------------------|
|--------------------------------------------------5--|
|--0-------------------5----7-8-8-8--8~----------8-5--|
|--0-------------------5----7-8-8-8--8~----------8----|
                              . .                .
|-----------------------------------------------------|
|-----------------------------------------------------|
|-----------------------------------------------------|
|-----------------------------------------------------|
|--0-------------5-----7----7-8-8-8--8~------8-5-5-4--|
|--0-------------5-----7----7-8-8-8--8~------8-5-5-4--|
                              . .            .   .  
Something done here to make it go down but not to sure.Just do this.
|-----|
|--2--|
|--3--|Both Guitars
|--0--|
|--0--|
|--0--|

Guitar 1 either this one (this one sounds better)
|-------------------------------------------------|
|--3-3-3-3-3-\-4-4-4-4-4-\-6-6-6-6-6-\-7-7-7-7-7--|
|--2-2-2-2-2-\-3-3-3-3-3-\-5-5-5-5-5-\-6-6-6-6-6--|
|--0-0-0-0-0-\-0-0-0-0-0-\-0-0-0-0-0-\-0-0-0-0-0--|
|-------------------------------------------------|
|-------------------------------------------------|
Guitar 2 or this one (this might be played by another guitar or not at all) 
|-------------------------------------------------|
|-------------------------------------------------|
|-------------------------------------------------|
|--7-7-7-7-7-\-8-8-8-8-8-\1010101010-\1111111111--|
|--5-5-5-5-5-\-6-6-6-6-6-\-8-8-8-8-8-\-9-9-9-9-9--|
|-------------------------------------------------|
One of them has to do this pick scrape and slide with fingers
|-----------------------------------------------|
|-----------------------------------------------|
|-----------------------------------------------|
|--x\\\\\\\\\\\\\\\\\\\\\-----------------------|
|--x\\\\\\\\\\\\\\\\\\\\\-----------------------|
|-------------------------x///////////x\\\\x///-|

Both Guitars
|-----------------------------------------------------------------------|
|-----------------------------------------------------------------------|
|-----------------------------------------------------------------------|
|----------1----------------1----------------1------------2------3----6-|
|-22-2-2-2-1-2-222-22-2-2-2-1-2-222-22-2-2-2-1-2-222-22-2-2-22-2-3-22-6-|
|-22-2-2-2---2-222-22-2-2-2---2-222-22-2-2-2---2-222-22-2---22-2---22---|
  .. . . .   . ... .. . . .   . ... .. . . .   . ... .. .   .. .   ..  
Guitar 1
|-------------------------------------------------------------------|
|-5-5-5-5-5-5-\-8-8-8-8-8-8-\-10-10-10-10-10-10-\-13-13-13-13-13-13-|
|-------------------------------------------------------------------|
|-------------------------------------------------------------------|
|-------------------------------------------------------------------|
|-------------------------------------------------------------------|

|--------------------|       |-------------------|
|--------------------|       |-------------------|
|--------------------|       |-------------------|
|------2------3----6-|x3 then|------2------------|
|-22-2-2-22-2-3-22-6-|       |-22-2-2-22-6-6-6-6-|
|-22-2---22-2---22---|       |-22-2---22-6-6-6-6-|
  .. .   .. .   ..             .. .   .. . . . . 
Both Guitars:Pull-offs mean to move fast just listen and get rythym
|---------------------------------|
|---------------------------------|
|---------------------------------|
|-----------------3---------------|
|-1p0-0-3-0-4-0-0-1p0-0-3-0-4-0-0-|
|-1p0-0-3-0-4-0-0--p0-0-3-0-4-0-0-|
    . .   .   . .   . .   .   . .
then
|------------------------------|
|------------------------------|
|------------------------------|
|-----------------3------------|
|-1p0-0-3-0-4-0-0-1p0-0-3-4---4|
|-1p0-0-3-0-4-0-0--p0-0-3-4---4|
    . .   .   . .   . .      
^Repeat x2
Both Guitars
|-----------------------------------------------------------------------|
|-----------------------------------------------------------------------|
|-----------------------------------------------------------------------|
|----------1----------------1----------------1------------2------3----6-|
|-22-2-2-2-1-2-222-22-2-2-2-1-2-222-22-2-2-2-1-2-222-22-2-2-22-2-3-22-6-|
|-22-2-2-2---2-222-22-2-2-2---2-222-22-2-2-2---2-222-22-2---22-2---22---|
  .. . . .   . ... .. . . .   . ... .. . . .   . ... .. .   .. .   .. 
Guitar 3 or 1
|-------------------------------------------------------------------|
|-5-5-5-5-5-5-5-5-5-5-5-5-5-5-5-5-5-5-5-5-5-5-5-5-5-5-5-5-----------|
|-------------------------------------------------------------------|
|-------------------------------------------------------------------|
|-------------------------------------------------------------------|
|-------------------------------------------------------------------|
Both Guitars
|--------------------------------------------------------------|
|--------------------------------------------------------------|
|--------------------------------------------------------------|
|----------1----------------1----------------1---------------2-|
|-22-2-2-2-1-2-222-22-2-2-2-1-2-222-22-2-2-2-1-2-222-2-2-2-2-2-|
|-22-2-2-2---2-222-22-2-2-2---2-222-22-2-2-2---2-222-2-2-2-2---|
  .. . . .   . ... .. . . .   . ... .. . . .   . ... . . . .
Guitar 3 or 1
|-------------------------------------------------------------------|
|-5-5-5-5-5-5-5-5-5-5-5-5-5-5-5-5-5-5-5-5-5-5-5-5-5-5-5-5-----------|
|-------------------------------------------------------------------|
|-------------------------------------------------------------------|
|-------------------------------------------------------------------|
|-------------------------------------------------------------------|

Both Guitars
|-----------------------------------------------------------------|
|-----------------------------------------------------------------|
|-----------------------------------------------------------------|
|-----------------------------------------------------------------|
|-----------------------0-3-5-6-5-3-------------------------------|
|-12-11-9b--5-8b--4-7b--0-3-5-6-5-3---0-0000-0-0000-0-0000-0-0000-|
                        . . .         . .... . .... . .... . ....
|-----------------------------------------------------------------|
|-----------------------------------------------------------------|
|-----------------------------------------------------------------|
|-----------------------------------------------------------------|
|-----------------------0-3-5-6-5-3-------------------------------|
|-12-11-9b--5-8b--4-7b--0-3-5-6-5-3---0-0000-0-0000-0-0000-0-0000-|
                        . . .         . .... . .... . .... . ....
|-----------------------------------------------------------------|
|-----------------------------------------------------------------|
|-----------------------------------------------------------------|
|-----------------------------------------------------------------|
|-----------------------0-3-5-6-5-3-------------------------------|
|-12-11-9-0-5-8-0-4-7---0-3-5-6-5-3---0-0000-0-0000-0-0000-0-0000-|
                        . . .         . .... . .... . .... . ....
|-----------------------------------------------------------------|
|-----------------------------------------------------------------|
|-----------------------------------------------------------------|
|-----------------------------------------------------------------|
|-----------------------0-3-5-6-5-3--------------------------12//-|
|-12-11-9b--5-8b--4-7b--0-3-5-6-5-3---0-0000-0-0000-0-0000-0-12//-|
                        . . .         . .... . .... . .... . 
BLOODLUST!!!!!(bend up more on the last one)
|-------------------------|
|-------------------------|
|-------------------------|
|-5b--5b--5b--5b^---------|
|-3b--3b--3b--3b^--0-0000-|
|---0---0---0------0-0000-|
    .   .   .      . ....
Both Guitars:Pull-offs mean to move fast just listen and get rythym
|---------------------------------|
|---------------------------------|
|---------------------------------|
|-----------------3---------------|
|-1p0-0-3-0-4-0-0-1p0-0-3-0-4-0-0-|
|-1p0-0-3-0-4-0-0--p0-0-3-0-4-0-0-|
    . .   .   . .   . .   .   . .
then
|------------------------------|
|------------------------------|
|------------------------------|
|-----------------3------------|
|-1p0-0-3-0-4-0-0-1p0-0-3-4---4|
|-1p0-0-3-0-4-0-0--p0-0-3-4---4|
    . .   .   . .   . .      
^Repeat x2
Both Guitars
|-----------------------------------------------------------------------|
|-----------------------------------------------------------------------|
|-----------------------------------------------------------------------|
|----------1----------------1----------------1------------2------3----6-|
|-22-2-2-2-1-2-222-22-2-2-2-1-2-222-22-2-2-2-1-2-222-22-2-2-22-2-3-22-6-|
|-22-2-2-2---2-222-22-2-2-2---2-222-22-2-2-2---2-222-22-2---22-2---22---|
  .. . . .   . ... .. . . .   . ... .. . . .   . ... .. .   .. .   .. 
Guitar 3 or 1
|-------------------------------------------------------------------|
|-5-5-5-5-5-5-5-5-5-5-5-5-5-5-5-5-5-5-5-5-5-5-5-5-5-5-5-5-----------|
|-------------------------------------------------------------------|
|-------------------------------------------------------------------|
|-------------------------------------------------------------------|
|-------------------------------------------------------------------|
Both Guitars
|--------------------------------------------------------------|
|--------------------------------------------------------------|
|--------------------------------------------------------------|
|----------1----------------1----------------1---------------2-|
|-22-2-2-2-1-2-222-22-2-2-2-1-2-222-22-2-2-2-1-2-222-2-2-2-2-2-|
|-22-2-2-2---2-222-22-2-2-2---2-222-22-2-2-2---2-222-2-2-2-2---|
  .. . . .   . ... .. . . .   . ... .. . . .   . ... . . . .
Guitar 3 or 1
|-------------------------------------------------------------------|
|-5-5-5-5-5-5-5-5-5-5-5-5-5-5-5-5-5-5-5-5-5-5-5-5-5-5-5-5-----------|
|-------------------------------------------------------------------|
|-------------------------------------------------------------------|
|-------------------------------------------------------------------|
|-------------------------------------------------------------------|

Both Guitars
|-----------------------------------------------------------------|
|-----------------------------------------------------------------|
|-----------------------------------------------------------------|
|-----------------------------------------------------------------|
|-----------------------0-3-5-6-5-3-------------------------------|
|-12-11-9b--5-8b--4-7b--0-3-5-6-5-3---0-0000-0-0000-0-0000-0-0000-|
                        . . .         . .... . .... . .... . ....
|-----------------------------------------------------------------|
|-----------------------------------------------------------------|
|-----------------------------------------------------------------|
|-----------------------------------------------------------------|
|-----------------------0-3-5-6-5-3-------------------------------|
|-12-11-9b--5-8b--4-7b--0-3-5-6-5-3---0-0000-0-0000-0-0000-0-0000-|
                        . . .         . .... . .... . .... . ....
|-----------------------------------------------------------------|
|-----------------------------------------------------------------|
|-----------------------------------------------------------------|
|-----------------------------------------------------------------|
|-----------------------0-3-5-6-5-3-------------------------------|
|-12-11-9-0-5-8-0-4-7---0-3-5-6-5-3---0-0000-0-0000-0-0000-0-0000-|
                        . . .         . .... . .... . .... . ....
|-----------------------------------------------------------------|
|-----------------------------------------------------------------|
|-----------------------------------------------------------------|
|-----------------------------------------------------------------|
|-----------------------0-3-5-6-5-3--------------------------12//-|
|-12-11-9b--5-8b--4-7b--0-3-5-6-5-3---0-0000-0-0000-0-0000-0-12//-|
                        . . .         . .... . .... . .... . 

BLOODLUST!!!!!(bend up more on the last one)
|-------------------------|
|-------------------------|
|-------------------------|
|-5b--5b--5b--5b^---------|
|-3b--3b--3b--3b^--0-0000-|
|---0---0---0------0-0000-|
    .   .   .      . ....
Something done here to make it go down but not to sure.Just do this.
|-----|
|--2--|
|--3--|Both Guitars
|--0--|
|--0--|
|--0--|

Guitar 1 either this one (this one sounds better)
|-------------------------------------------------|
|--3-3-3-3-3-\-4-4-4-4-4-\-6-6-6-6-6-\-7-7-7-7-7--|
|--2-2-2-2-2-\-3-3-3-3-3-\-5-5-5-5-5-\-6-6-6-6-6--|
|--0-0-0-0-0-\-0-0-0-0-0-\-0-0-0-0-0-\-0-0-0-0-0--|
|-------------------------------------------------|
|-------------------------------------------------|
Guitar 2 or this one (this might be played by another guitar or not at all) 
|-------------------------------------------------|
|-------------------------------------------------|
|-------------------------------------------------|
|--7-7-7-7-7-\-8-8-8-8-8-\1010101010-\1111111111--|
|--5-5-5-5-5-\-6-6-6-6-6-\-8-8-8-8-8-\-9-9-9-9-9--|
|-------------------------------------------------|
One of them has to do this pick scrape and slide with fingers
|-----------------------------------------------|
|-----------------------------------------------|
|-----------------------------------------------|
|--x\\\\\\\\\\\\\\\\\\\\\-----------------------|
|--x\\\\\\\\\\\\\\\\\\\\\-----------------------|
|-------------------------x///////////x\\\\x///-|

Both Guitars
|-----------------------------------------------------------------------|
|-----------------------------------------------------------------------|
|-----------------------------------------------------------------------|
|----------1----------------1----------------1------------2------3----6-|
|-22-2-2-2-1-2-222-22-2-2-2-1-2-222-22-2-2-2-1-2-222-22-2-2-22-2-3-22-6-|
|-22-2-2-2---2-222-22-2-2-2---2-222-22-2-2-2---2-222-22-2---22-2---22---|
  .. . . .   . ... .. . . .   . ... .. . . .   . ... .. .   .. .   .. 

|-----------------------------------------------------------------------|
|-----------------------------------------------------------------------|
|-----------------------------------------------------------------------|
|----------1----------------1----------------1------------2------3----6-|
|-22-2-2-2-1-2-222-22-2-2-2-1-2-222-22-2-2-2-1-2-222-22-2-2-22-2-3-22-6-|
|-22-2-2-2---2-222-22-2-2-2---2-222-22-2-2-2---2-222-22-2---22-2---22---|
  .. . . .   . ... .. . . .   . ... .. . . .   . ... .. .   .. .   ..

|-----------------------------------------------------------------------|
|-----------------------------------------------------------------------|
|-----------------------------------------------------------------------|
|----------1----------------1----------------1------------2------3----6-|
|-00-0-0-0-1-0-000-00-0-0-0-1-0-000-00-0-0-0-1-0-000-22-2-2-22-2-3-22-6-|
|-00-0-0-0---0-000-00-0-0-0---0-000-00-0-0-0---0-000-22-2---22-2---22---|
  .. . . .   . ... .. . . .   . ... .. . . .   . ... .. .   .. .   ..  
Guitar 2
|---------------------------------------------------------------------------|
|---------------------------------------------------------------------------|
|---------------------------------------------------------------------------|
|----------1----------------1----------------1------------------------------|
|-22-2-2-2-1-2-222-22-2-2-2-1-2-222-22-2-2-2-1-2-222-3-3-3-5-3--3-3-3-5-3-5-|
|-22-2-2-2---2-222-22-2-2-2---2-222-22-2-2-2---2-222-3-3-3-5-3--3-3-3-5-3-5-|
  .. . . .   . ... .. . . .   . ... .. . . .   . ... . . .   .  . . .   . .
Guitar 1-Under this Riff
|---------------------------------------------------------------------------|
|-5-5-5-5-5-5-\-8-8-8-8-8-8-\-10-10-10-10-10-10-\-13-13-13-13-13-13-13-13-13|
|---------------------------------------------------------------------------|
|---------------------------------------------------------------------------|
|---------------------------------------------------------------------------|
|---------------------------------------------------------------------------|

^Repeat over these Riff
Guitar 2 This Riff Goes Along with the top one
|-------------------------------------------------------|
|-------------------------------------------------------|
|-------------------------------------------------------|
|-------------------------------------------------------|
|-2~---------------2-0-2--2-3-3-3--3~-----------3-5-3-0-|
|-2~---------------2-0-2--2-3-3-3--3~-----------3-5-3-0-|
                            . .                 . . . .
|-------------------------------------------------------|
|-------------------------------------------------------|
|-------------------------------------------------------|
|-------------------------------------------------------|
|-2~---------------2-0-2--2-3-3-3--3~-----------3-5-3-0-|
|-2~---------------2-0-2--2-3-3-3--3~-----------3-5-3-0-|
                            . .                 . . . .
|-------------------------------------------------------|
|-------------------------------------------------------|
|-------------------------------------------------------|
|-------------------------------------------------------|
|-2~---------------2-0-2--2-3-3-3--3~-------3-3-3-5-3-0-|
|-2~---------------2-0-2--2-3-3-3--3~-------3-3-3-5-3-0-|
                            . .             . . .   . .
|-------------------------------------------------------|
|-------------------------------------------------------|
|-------------------------------------------------------|
|-------------------------------------------------------|
|-2~---------------2-0-2--2-3-3-3--3~-----------3-5-3-0-|
|-2~---------------2-0-2--2-3-3-3--3~-----------3-5-3-0-|
                            . .                 . . . .

Solo? Email me or comment I'll post if correct.Thanx.Good Luck!

Guitar 2 Under Solo
|------------------------------------------------------|
|------------------------------------------------------|
|------------------------------------------------------|
|----------1----------1------------1-------------------|
|-22-2-2-2-1---2-2222-1---22-2-2-2-1--5b^p0-5b^p0--5-1-|
|-22-2-2-2-----2-2222-----22-2-2-2---------------------|
  .. . . .     . ....     .. . . . 
|------------------------------------------------------|
|------------------------------------------------------|
|------------------------------------------------------|
|----------1----------1------------1-------------------|
|-22-2-2-2-1---2-2222-1---22-2-2-2-1--5b^p0-5b^p0--5-1-|
|-22-2-2-2-----2-2222-----22-2-2-2---------------------|
  .. . . .     . ....     .. . . .
|------------------------------------------------------|
|------------------------------------------------------|
|------------------------------------------------------|
|------------------------------------------------------|
|-22-2-2-2---22-2-2-2---22-2-2-2---22-2-2-2---22-2-2-2-|
|-22-2-2-2---22-2-2-2---22-2-2-2---22-2-2-2---22-2-2-2-|
  .. . . .   .. . . .   .. . . .   .. . . .   .. . . .
|--------------------------------|
|--------------------------------|
|--------------------------------|
|--------------------------------|
|-22-2-2-2---22-2-2-2---22-2-2-2-|
|-22-2-2-2---22-2-2-2---22-2-2-2-|
  .. . . .   .. . . .   .. . . . 
|------------------------------------------------------|
|------------------------------------------------------|
|------------------------------------------------------|
|----------1----------1------------1-------------------|
|-22-2-2-2-1---2-2222-1---22-2-2-2-1--5b^p0-5b^p0--5-1-|
|-22-2-2-2-----2-2222-----22-2-2-2---------------------|
  .. . . .     . ....     .. . . . 
|------------------------------------|
|------------------------------------|
|------------------------------------|
|----------1----------1------------1-|
|-22-2-2-2-1---2-2222-1---22-2-2-2-1-|
|-22-2-2-2-----2-2222-----22-2-2-2---|
  .. . . .     . ....     .. . . .  
|-----------------------------------------|
|-----------------------------------------|
|-----------------------------------------|
|------2------3----6--------2------3----6-|
|-22-2-2-22-2-3-22-6---22-2-2-22-2-3-22-6-|
|-22-2---22-2---22-----22-2---22-2---22---|
  .. .   .. .   ..     .. .   .. .   ..
|--------------------------------------|
|--------------------------------------|
|--------------------------------------|
|------2------3----6-------------------|
|-22-2-2-22-2-3-22-6---2-2-2-2-2-2-2-2-|
|-22-2---22-2---22-----2-2-2-2-2-2-2-2-|
  .. .   .. .   ..     . . . . . . . .
Both Guitars:Pull-offs mean to move fast just listen and get rythym
|---------------------------------|
|---------------------------------|
|---------------------------------|
|-----------------3---------------|
|-1p0-0-3-0-4-0-0-1p0-0-3-0-4-0-0-|
|-1p0-0-3-0-4-0-0--p0-0-3-0-4-0-0-|
    . .   .   . .   . .   .   . .
then
|------------------------------|
|------------------------------|
|------------------------------|
|-----------------3------------|
|-1p0-0-3-0-4-0-0-1p0-0-3-4---4|
|-1p0-0-3-0-4-0-0--p0-0-3-4---4|
    . .   .   . .   . .      
^Repeat x2
Both Guitars
|-----------------------------------------------------------------------|
|-----------------------------------------------------------------------|
|-----------------------------------------------------------------------|
|----------1----------------1----------------1------------2------3----6-|
|-22-2-2-2-1-2-222-22-2-2-2-1-2-222-22-2-2-2-1-2-222-22-2-2-22-2-3-22-6-|
|-22-2-2-2---2-222-22-2-2-2---2-222-22-2-2-2---2-222-22-2---22-2---22---|
  .. . . .   . ... .. . . .   . ... .. . . .   . ... .. .   .. .   .. 
Guitar 3 or 1
|-------------------------------------------------------------------|
|-5-5-5-5-5-5-5-5-5-5-5-5-5-5-5-5-5-5-5-5-5-5-5-5-5-5-5-5-----------|
|-------------------------------------------------------------------|
|-------------------------------------------------------------------|
|-------------------------------------------------------------------|
|-------------------------------------------------------------------|
Both Guitars
|--------------------------------------------------------------|
|--------------------------------------------------------------|
|--------------------------------------------------------------|
|----------1----------------1----------------1---------------2-|
|-22-2-2-2-1-2-222-22-2-2-2-1-2-222-22-2-2-2-1-2-222-2-2-2-2-2-|
|-22-2-2-2---2-222-22-2-2-2---2-222-22-2-2-2---2-222-2-2-2-2---|
  .. . . .   . ... .. . . .   . ... .. . . .   . ... . . . .
Guitar 3 or 1
|-------------------------------------------------------------------|
|-5-5-5-5-5-5-5-5-5-5-5-5-5-5-5-5-5-5-5-5-5-5-5-5-5-5-5-5-----------|
|-------------------------------------------------------------------|
|-------------------------------------------------------------------|
|-------------------------------------------------------------------|
|-------------------------------------------------------------------|
Both Guitars
|-----------------------------------------------------------------|
|-----------------------------------------------------------------|
|-----------------------------------------------------------------|
|-----------------------------------------------------------------|
|-----------------------0-3-5-6-5-3-------------------------------|
|-12-11-9b--5-8b--4-7b--0-3-5-6-5-3---0-0000-0-0000-0-0000-0-0000-|
                        . . .         . .... . .... . .... . ....
|-----------------------------------------------------------------|
|-----------------------------------------------------------------|
|-----------------------------------------------------------------|
|-----------------------------------------------------------------|
|-----------------------0-3-5-6-5-3-------------------------------|
|-12-11-9b--5-8b--4-7b--0-3-5-6-5-3---0-0000-0-0000-0-0000-0-0000-|
                        . . .         . .... . .... . .... . ....
|-----------------------------------------------------------------|
|-----------------------------------------------------------------|
|-----------------------------------------------------------------|
|-----------------------------------------------------------------|
|-----------------------0-3-5-6-5-3-------------------------------|
|-12-11-9-0-5-8-0-4-7---0-3-5-6-5-3---0-0000-0-0000-0-0000-0-0000-|
                        . . .         . .... . .... . .... . ....
|----------------------------------------------------------|
|----------------------------------------------------------|
|----------------------------------------------------------|
|----------------------------------------------------------|
|-----------------------0-3-5-6-5-3------------------------|
|-12-11-9b--5-8b--4-7b--0-3-5-6-5-3---0-0000-0-0000-0-0000-|
                        . . .         . .... . .... . ....  
|------------------------------------------------------------------|
|------------------------------------------------------------------|
|------------------------------------------------------------------|
|------------------------------------------------------------------|
|------------------------------------------------------------------|
|-7\13/12--0-0-0000-0-0000-0-0000--7\12/11--0-0-0000-0-0000-0-0000-|
           . . .... . .... . ....           . . .... . .... . ....
|-------------------------------------|
|-------------------------------------|
|-------------------------------------|
|-------------------------------------|
|-------------------------------------|
|-7\11/10--0-0-0000-0-0000-0-0000-000-|
           . . .... . .... . .... ...

Guitar 1
|-----------------------------------------------|
|-----------------------------------------------|
|-----------------------------------------------|
|-----------------------------------------------|
|-----------------------------------------------|
|-0--7\13/12--0--7\12/11--0--7\11/10--0--6\10/9-|
Guitar 2     
|--------------------------------------|   |-------|
|--------------------------------------|   |-------|
|--------------------------------------|   |-------|
|--------------------------------------|   |-------|
|--------------------------------------|   |-0-6-9-|
|-0-0-0000-0-0000-0-0000-0-0000-6\10/9-|   |-0-6-9-|
  . . .... . .... . .... . ....            ^Listen for this
                                            its at the end somehere  
Both Guitars
|-----------------------------------------------|
|-----------------------------------------------|
|-----------------------------------------------|
|-----------------------------------------------|
|-----------------------------------------------|
|-0--7\13/12--0--7\12/11--0--7\11/10--0--6\10/9-|

|-----------------------------------------------|
|-----------------------------------------------|
|-----------------------------------------------|
|-----------------------------------------------|
|-----------------------------------------------|
|-0--7\13/12--0--7\12/11--0--7\11/10--0--6\10/9-|

|------------------------------------------------|
|------------------------------------------------|
|------------------------------------------------|
|------------------------------------------------|
|------------------------------------------------|
|-0--9\15/14--0--9\14/13--0--9\13/12--0--8\12/11-|

|------------------------------------------------|
|------------------------------------------------|
|------------------------------------------------|
|------------------------------------------------|
|------------------------------------------------|
|-0--9\15/14--0--9\14/13--0--9\13/12--0--8\12/11-|

Long ass song but its totally worth my time this is for ya'll
                                                             ,nUmguitarist 

                Rate This Tab Please And Add Corrections 





Comments


Popular Chimaira tabs & chords
Implements Of Destruction Bass Tabs
Implements Of Destruction 1 Bass Tabs
Pure Hatred 1 Bass Tabs
Down Again Tabs
Eyes Of A Criminal 1 Tabs
Lumps 1 Tabs
No Reason To Live Tabs
Pleasure In Pain Tabs
Save Ourselves Tabs
Stigmurder Tabs


Song lyrics



↑ Back to top | Tablatures and chords are parodies/interpretations of the original songs. You may use it for private study, scholarship, research or language learning purposes only
© 2014 AZChords.com Contact us | Privacy policy | DMCA | Add/correct tabs | Request tabs | Top 50 tabs