>
 >
Army Of Me

Army Of Me Guitar Tabs

Chimaira - Army Of Me chords, tabs, tablatures, lyrics

Guitar lessons | Add/correct | Request | Top 50 tabs Artists:  A B C D E F G H I J K L M N O P Q R S T U V W X Y Z 0-9

Army Of Me Guitar Tabs – Chimaira

CD, Sheet music, Poster

Do you like Army Of Me? Share with your friends now
TabsTabs v2Tabs v3Tabs v4Tabs v5
I had a tab for this 
song earlier, but it 
was very wrong.
so here you go

Tuning:C G C F A D

intro:

D-----------------------|
A------------7-6----10-9|
F----------------5-6----|
C-----7-6---------------|
G--4-5----7-8-----------|-
C-----------------------|

gtr.2

D-----------------------|
A----------6-5-----9-8--|
F----7-6-------6-7------|
C-4-5---7-8-------------|
G-----------------------|
C-----------------------|

D-----------------------|
A----------7-6----9tr(10)
F-------------5-6-------|
C----7-6----------------|
G-4-5---7-8-------------|
C-----------------------|

D-----------------------|
A-----------6-5----8tr(9)
F----7-6-------6-7------|
C-4-5---7-8-------------|
G-----------------------|
C-----------------------|

verse:

D--------------------------------------------|
A--------------------------------------------|
F--------------------------------------------|
C--------------------------------------------|
G--------5-00-1---------6p5-6p5-5/6-6p5-1/4/1|
C-0000000--00-1-0000000-----6p5-5/6-6p5-1/4/1|
pm.......  ..   .......|

Prechorus

D----------------------------------------|
A----------------------------------------|
F----------------------------------------|
C----------------------------------------|
G------------------------------------5*b-|
C-000-000-000-000-000-000-000-000-000----|
pm...................................|  

Chorus

D------------------------|
A------------------------|
F------------------------|
C------------------------|
G-1-0-1-0-1-0-4-3-4-3-4-3|
C-1-0-1-0-1-0-4-3-4-3-4-3|

D--------------------------|
A--------------------------|
F-7-6-7-6-6-7-/111011101110|
C-x-x-x-x-x-x-/x-x-x-x-x-x-|
G-5-4-5-4-5-4-/9-8-9-8-9-8-|
C--------------------------|

solo

D-/15b(17)-10p9h10-10p9h10-13p9h10p9-10p9h10-10p9h10-13p10|
G---------------------------------------------------------|
C---------------------------------------------------------|
F---------------------------------------------------------|
A---------------------------------------------------------|
D---------------------------------------------------------|

D----------------------------18b-21b-|
A-18-15-14-15-14---------------------|
F---------------15-14-15~~-15--------| w/whammy pedal and bar
C------------------------------------|
G------------------------------------|
C------------------------------------|

D-13-14-17-16-15-16-19-18------15-14-----18-17------22bp21~~-|
A-------------------------12-13-----14-15-----17-18----------|
F------------------------------------------------------------|
C------------------------------------------------------------|
G------------------------------------------------------------|
C------------------------------------------------------------|

D-22p21p20-20p19p18-18p19p17-17p16p15-15p14p12-12p10p9-|
A------------------------------------------------------|
F------------------------------------------------------|
C------------------------------------------------------|
G------------------------------------------------------|
C------------------------------------------------------| outro
                x(as needed)
D---------------|-------------|
A---------------|-------------|
F---------------|-------------|
C--8p7----------|-------------|
G-------5p4-0h3-|-000000000000|
C-0----0--------|-000000000000|

D------------------------------------------------------|
A------------------------------------------------------|
F------------------------------------------------------|
C---------------------------------------------------3*b|
G-00-00-0-00-00-00-0-0-00-00-00-0-0-00-00-00-0-0-00----|
C-00-00-0-00-00-00-0-0-00-00-00-0-0-00-00-00-0-0-00----|





Comments


Popular Chimaira tabs & chords
Implements Of Destruction 3 Bass Tabs
Inside The Horror Bass Tabs
Army Of Me 1 Tabs
Bloodlust 1 Tabs
Cleansation 1 Tabs
Empty Tabs
Lazarus 1 Tabs
Pictures In The Gold Room 1 Tabs
Taste My... Tabs
Year Of The Snake Tabs


Song lyrics



↑ Back to top | Tablatures and chords are parodies/interpretations of the original songs. You may use it for private study, scholarship, research or language learning purposes only
© 2014 AZChords.com Contact us | Privacy policy | DMCA | Add/correct tabs | Request tabs | Top 50 tabs