>
 >
Everytime I Die

Everytime I Die Guitar Tabs

Children Of Bodom - Everytime I Die chords, tabs, tablatures, lyrics

Guitar lessons | Add/correct | Request | Top 50 tabs Artists:  A B C D E F G H I J K L M N O P Q R S T U V W X Y Z 0-9

Everytime I Die Guitar Tabs – Children Of Bodom

CD, Sheet music, Poster

Do you like Everytime I Die? Share with your friends now
Bass TabsBass Tabs v2TabsTabs v2Tabs v3Tabs v4
/--------------------------------------------------------------/
/ The following is the author's own interpertation of the song,/
/to be used - for studying or private use only                 /
/--------------------------------------------------------------/

CHILDREN OF BODOM - EVERY TIME I DIE


For Questions, Comments, Corrections please contact 

Written to computer by:

D tuning (D,G,C,F,A,D)

Intro:
guitar 1:
			  N.H     N.H			 N.H	   N.H
|-------------------12---------------------------------------/|
|-3------3-/-5--------------------3------3-/-5--------------/-|
|-2------2-/-4--------------24----2------2-/-4---12-11---15/--|
|------------------------------------------------------whammy-|
|--------------------------------------------------------bar--|
|-------------------------------------------------------------|

guitar 2:
|-------------------------------------------------------------|
|*-----------------------------------------------------------*|
|-------------------------------------------------------------|
|-------------------------------------------------------------|
|*-----------------------------------------------------------*|
|-0-00000000-00-0-0-00000000-00-0-0-00000000-00-0-0-00000000-0|
  . ........ .. . . ........ .. . . ........ .. . . ........ .

Riff 1:

guitar 1 & 2
|-------------------------------------------------------------|
|-------------------------------------------------------------|
|---------------------------------7---------------------------|
|---------------------------------7---------------------------| 
|---------------------------------5---------------------------| 
|-0-00000000-00-0-0-00000000-00-0-----------------------------|
  . ........ .. . . ........ .. .

guitar 1
|-------------------------------------------------------------|
|-------------------------------------------------------------|
|----------------------------9---9-11-12-11-9----9------------|
|------------------------------9--------------12--------------|
|-------------------------------------------------------------|
|-0-00000000-00-0-0-00000000----------------------------------|
  . ........ .. . . ........

guitar 2
|-------------------------------------------------------------|
|------------------------------------10-12-10-----------------|
|----------------------------12-9-12----------12-11-12--------|
|-------------------------------------------------------------|
|-------------------------------------------------------------|
|-0-00000000-00-0-0-00000000----------------------------------|
  . ........ .. . . ........

guitar 1 & 2
|-------------------------------------------------------------|
|-------------------------------------------------------------|
|---------------------------------7---------------------------| 
|---------------------------------7---------------------------|    
|---------------------------------5---------------------------|   
|-0-00000000-00-0-0-00000000-00-0-----------------------------|
  . ........ .. . . ........ .. .

guitar 1 & 2
|---------------------|   
|---------------------|   
|---------------------| 
|---------------------|
|---------------------|
|-0-00000000-00-0-0---|
  . ........ .. . .

guitar 1
|-----121712------121512------121712------141714--------------|
|---13------13--13------13--13------13--15------15------------|
|-14----------12----------14----------14----------------------|
|-------------------------------------------------------------|
|-------------------------------------------------------------|
|-------------------------------------------------------------|

guitar 2
|-------------------------------------------------------------|
|-------------------------------------------------------------|
|-------------------------------------------------------------|
|-2-----------5-----------2-----------7-----------------------|
|-0-----------3-----------0-----------5-----------------------|
|-------------------------------------------------------------|

Riff 2:

guitar 1
|-------------------------------------------------------------|
|*--8-7---7----------7-----------777-------------------------*|
|-9-----9---7-9--------9-7---999------------------------------|
|---------------10-9------------------------------------------|
|*-----------------------------------------------------------*|
|-------------------------------------------------------------|
				     ... ...
guitar 2
|-------------------------------------------------------------|
|*-----------------------------------------------------------*|
|-9-----------------------------------------------------------|
|---9-9-9-7----------4-2-----555-777--------------------------|
|*----------9-10-7-2-----5---333-555-------------------------*|
|-------------------------------------------------------------|
				     ... ...
guitar 1					 1.
|-12---------------------------------|------------------------|
|----12-12-12------------------------|-----777----------------|
|-------------14-11-12------11-9-----|-999--------------------|
|----------------------14-9------12--|------------------------|
|------------------------------------|------------------------|
|------------------------------------|------------------------|

guitar 2			    1.
|---------------------------|---------------------------------|
|---8-7---7----------7------|---------------------------------|
|-9-----9---7-9--------9-7--|---------------------------------|
|---------------10-9--------|-555-777-------------------------|
|---------------------------|-333-555-------------------------|
|---------------------------|---------------------------------|
			            ... ...
guitar 1 & 2
 2.
|----------------------------15-17-19---24~-------------------|
|-------------------15-17-19----------------------------------|
|----------14-16-17-------------------------------------------|
|-14-16-17----------------------------------------------------|
|-------------------------------------------------------------|
|-------------------------------------------------------------|

guitar 1 & 2
|-------------------------------------------------------------|
|-------------------------------------------------------------|
|-------------------------------------------------------------|
|--Keyboard---------------------4---4-4-4---4---5-5-5---7-7-7-| 
|-------------------------------2---2-2-2---2---3-3-3---5-5-5-| 
|-------------------------------------------------------------|
					      . . .       . .     . . 
 Verse:

guitar 1 & 2
|-------------------------------------------------------------|
|*------------------------------------------------------------|
|-------------------------------------------------------------|
|-2---------2----------------2---------2------------5---------| 
|*2---------2----------------2---------2------------5---------| 
|-0---0-0---0---0---000000---0---0-0---0---0---00---3---------|
      . .       .   ......       . .       .   ..
|-------------------------------------------------------------|
|------------------------------------------------------------*|
|------------------------7---4---4-4-4---4---5-5-5---7-7-7----|
|-2---------2------------7---4---4-4-4---4---5-5-5---7-7-7----| 
|-2---------2------------5---2---2-2-2---2---3-3-3---5-5-5---*| 
|-0---0-0---0---0---00----------------------------------------|
      . .       .   ..            . . .       . .     . .


|-------------------------------------------------------------|
|-------------------------------------------------------------|
|-------------------------------------------------------------|
|-2---------2----------------2---------2------------5---------| 
|-2---------2----------------2---------2------------5---------| 
|-0---0-0---0---0---000000---0---0-0---0---0---00---3---------|
      . .       .   ......       . .       .   ..

|-------------------------------------------------------------|
|-------------------------------------------------------------|
|------------------------7------------------------------------|
|-2---------2------------7---3---3-3---3---3-3---5------------| 
|-2---------2------------5---3---3-3---3---3-3---5------------| 
|-0---0-0---0---0---00-------1---1-1---1---1-1---3------------|
      . .       .   ..           . .       . .
					
guitar 1                                     A.H    A.H
|-------------------------------------------------------------|
|*--13-12----12------------12-------------------121212--------|
|-14-------14---12-14----------14---12---141414---------------|
|---------------------15-14------------------------------3x---|
|*------------------------------------------------------------|
|-------------------------------------------------------------|
                                         ...... ......
guitar 2
|-------------------------------------------------------------|
|*-----------------------------------------------------------*|
|-14----------------------------------------------------------|
|----14-14-14-12------------9-7----------101010--121212---3x--|
|*---------------14-15-12-7-------10-----8-8-8---101010------*|
|-------------------------------------------------------------|
						     ......  ......
guitar 1 + keyboard
|-----172217------172017------172217------192219--19b20r19p17191919|
|---18------18--18------18--18------18--20------20-----------------|
|-19----------17----------19----------19---------------------------|
|------------------------------------------------------------------|
|------------------------------------------------------------------|
|------------------------------------------------------------------|

guitar 2
|-------------------------------------------------------------|
|-------------------------------------------------------------|
|-7-----------10----------7-----------12----------14------12--|
|-7-----------10----------7-----------12----------14------12--|
|-5-----------8-----------5-----------10----------12------10--|
|-------------------------------------------------------------|

Chorus:

guitar 1
|-----------7----7----------------------------7---------------|
|*10---8-10----8---------10--8---10-------------8------------*|
|----9-------9-------9-9-9---7---9---9---99-------------------|
|-------------------------------------------------------------|
|*-----------------------------------------------------------*|
|-------------------------------------------------------------|
                     . .             .   .. 
guitar 2
|-------------------------------------------------------------|
|*-----------------------------------------------------------*|
|---------------------------------------------7---------------|
|-7---------2--------7-5-7---5---7------------7-5-------------|
|*7---------2--------7-7-7---5---7------------5-5------------*|
|-5---------0--------5-5-5---3---5---5---55-----3-------------|

guitar 1
|-----------7----7---8------8---------12131513--12~-----------|
|-10---8-10----8---------10-----121315--------15--------------|
|----9-------9---------10-------------------------------------|
|-------------------------------------------------------------|
|-------------------------------------------------------------|
|-------------------------------------------------------------|

guitar 2
|-------------------------------------------------------------|
|-------------------------------------------------------------|
|-------------------------------------------------------------|
|-7---------2--------3----------0---------3-------------------|
|-7---------2--------3----------0---------3-------------------|
|-5---------0--------1--------------------1-------------------|

guitar 1 & 2
|-------------------------------------------------------------|
|-------------------------------------------------------------|
|---------------------------------7---------------------------|
|---------------------------------7---------------------------| 
|---------------------------------5---------------------------| 
|-0-00000000-00-0-0-00000000-00-0-----------------------------|
  . ........ .. . . ........ .. .
|-------------------------------------------------------------|
|-------------------------------------------------------------|
|---------------------------------7-----7---5---7-------------|
|---------------------------------7-----7---5---7-------------|
|---------------------------------5-5-5-5-3-3-5-5-------------|
|-0-00000000-00-0-0-00000000-00-0-----------------------------|
  . ........ .. . . ........ .. .   . .   .   .

Play verse 1 time
                               ________________
guitar 1                       |1.2
|----------------15-0-15-17-15-0-15----------15---------------|
|-17----17----17--------------------17----17------------------|
|----16----16--------------------------16---------------------|
|-------------------------------------------------------------| 
|-------------------------------------------------------------| 
|-------------------------------------------------------------|

guitar 2
|-------------------------------------------------------------|
|-------------------------------------------------------------|
|-------------------------------------------------------------|
|-99999----99999----9---7----99999---99999---5----------------| 
|-77777----77777----7---5----77777---77777---3----------------| 
|-00000----00000----0--------00000---00000--------------------|

guitar 2 on third time
|-------------------------------------------------------------|
|-------------------------------------------------------------|
|-------------------------------------------------------------|
|--2---------------5-------------2-------------7--------------| 
|--0---------------3-------------0-------------5--------------| 
|-------------------------------------------------------------|

guitar 1
|----------------------------------------------------------------|
|*--------------------------------------------------------------*|
|----------------------------------------------------------------|
|-9---9-9-1111-1212---5------5---------------2-4/7-5-4-9-7-5-5-4-|
|*7---7-7-9-9--1010---3-3333-3--77775555------------------------*| 
|--0000----------------------------------------------------------|
   ....   .... ....     ....    ........

|----------------------------------------------------------------|
|*--------------------------------------------------------------*|
|----------------------------------------------------------------|
|-9---9-9-1111-1212---5------5-5---5---4-4---2-4/7-5-4-9-7-5-5-4-|
|*7---7-7-9-9--1010---3-3333-3-3-3-3-2-2------------------------*| 
|--0000----------------------------------------------------------|
   ....   .... ....     ....     .   .

SOLO:

guitar 1 Listen rhytm from CD
|------12---19p15---15/17--------------------------17-15------|
|-------------------------17/13---15/17------------------15---|
|-9/14----------------------------------14\12-----------------|
|-----------------------------------------------12------------| 
|-------------------------------------------------------------| 
|-------------------------------------------------------------|

guitar 2
|-------------------------------------------------------------|
|-------------------------------------------------------------|
|-2----------------------5------------------------------------|
|-2-----------------5----5--------3---------2-----------------| 
|-0-----------------5----3--------3---------2-----------------| 
|-------------------3-------------1---------0-----------------|

guitar 1
|-----------------------------------------------|
|-16-17-20-16-17-22-16-17-20-16-17-22-16-17-20--|
|-----------------------------------------------|
|-----------------------------------------------| 
|-----------------------------------------------| 
|-----------------------------------------------|

guitar 2 
|-----------------------------------------------|
|-----------------------------------------------|
|-----------------------------------------------|
|-5-----------------------2---------------------| 
|-5-----------------------2---------------------| 
|-3-----------------------0---------------------|

guitar 1
|-17-20----20-19-17----17----17-19-20-19-17-------------------|
|-------18----------20----20----------------20-19-17----------|
|-------------------------------------------------------------|
|-------------------------------------------------------------| 
|-------------------------------------------------------------| 
|-------------------------------------------------------------|

guitar 2
|-------------------------------------------------------------|
|-------------------------------------------------------------|
|-------------------------------------------------------------|
|-3------------------5----------------------------------------| 
|-3------------------5----------------------------------------| 
|-1------------------3----------------------------------------|

guitar 1
|20b22r20p17-------------------------17-19-19b20r19p17--------|
|------------20-17----------------18--------------------------|
|------------------19-17-------17-----------------------------|
|---------------------------19--------------------------------| 
|------------------------20-----------------------------------| 
|-------------------------------------------------------------|

guitar 2
|-------------------------------------------------------------|
|-------------------------------------------------------------|
|-2----------------5------------------------------------------|
|-2-------5--------5-----------3------------2-----------------| 
|-0-------5--------3-----------3------------2-----------------| 
|---------3--------------------1------------0-----------------|

guitar 1
|-19-17-20p17p15----------20p17p15----------------------------|
|----------------17p15-------------17p15----------------------|
|----------------------17----------------17-------------------|
|-------------------------------------------------------------| 
|-------------------------------------------------------------| 
|-------------------------------------------------------------|

guitar 2
|-------------------------------------------------------------|
|-------------------------------------------------------------|
|-------------------------------------------------------------|
|-5-----------------------------------------------------------| 
|-5-----------------------------------------------------------| 
|-3-----------------------------------------------------------|

guitar 1
|-20p17p15----------20p17p15----------------------------------|
|----------17p15-------------17p15----------------------------|
|----------------17----------------17-------------------------|
|-------------------------------------------------------------| 
|-------------------------------------------------------------| 
|-------------------------------------------------------------|

guitar 2
|-------------------------------------------------------------|
|-------------------------------------------------------------|
|-------------------------------------------------------------|
|-2-----------------------------------------------------------| 
|-2-----------------------------------------------------------| 
|-0-----------------------------------------------------------|

guitar 1
|-20p17p15----------15p12p10----------------------------------|
|----------17p15-------------13p10----------------------------|
|----------------17----------------10-------------------------|
|-------------------------------------------------------------| 
|-------------------------------------------------------------| 
|-------------------------------------------------------------|

guitar 2
|-------------------------------------------------------------|
|-------------------------------------------------------------|
|-------------------------------------------------------------|
|-3-----------------------------------------------------------| 
|-3-----------------------------------------------------------| 
|-1-----------------------------------------------------------|

guitar 1
|-15p12p10----------15p12p10----------------------------------|
|----------13p10-------------13p10----------------------------|
|----------------10----------------10-------------------------|
|-------------------------------------------------------------| 
|-------------------------------------------------------------| 
|-------------------------------------------------------------|

guitar 2
|-------------------------------------------------------------|
|-------------------------------------------------------------|
|-------------------------------------------------------------|
|-5-----------------------------------------------------------| 
|-5-----------------------------------------------------------| 
|-3-----------------------------------------------------------|

|-------------------------------------------------------------|
|-------------------------------------------------------------|
|-------------------------------------------------------------|
|-keyboard solo, guitar 1&2 plays solo riff----5---5---3---5--| 
|----------------------------------------------5---5---3---5--| 
|--------------------------------------------3-3-3-3-1-1-3-3--|
                                             .   .   .   .
|------------------------------------------|------------------|
|------------------------------------------|------------------|
|-play chorus 1 time ----------------------|------------------|
|------------------------------------------|---7---7---3---5--| 
|------------------------------------------|---7---7---3---5--| 
|------------------------------------------|-5-5-5-5-1-1-3-3--|
                                             .	 .   .   .





Comments


Popular Children Of Bodom tabs & chords
Are You Dead Yet? Bass Tabs
You're Better Off Dead! Bass Tabs
Black Widow Tabs
Bloodrunk Intro Tabs
Hate Me 2 Tabs
Hate Me! Tabs
Hellion Tabs
If You Want Peace Prepare For War Tabs
Living Dead Beat 4 Tabs
Needled 24 7 Tabs


Song lyrics



↑ Back to top | Tablatures and chords are parodies/interpretations of the original songs. You may use it for private study, scholarship, research or language learning purposes only
© 2014 AZChords.com Contact us | Privacy policy | DMCA | Add/correct tabs | Request tabs | Top 50 tabs