» » »

Children Of Bodom, Downfall Tabs (ver.6)

Artists:  A B C D E F G H I J K L M N O P Q R S T U V W X Y Z # 

Downfall Tabs (ver.6)

Children Of Bodom Tabs
 Rating:
4/5 (4 votes)
Downfall lessons Tabs too difficult? Try these video lessons and learn fast
1
                Children of Bodom 
Hatebreeder

Tune all strings down one whole step
                                                    1.2.3.    4
D:------------------|------------------------------|---------|--------|
A:------------------|------------------------------|---------|--------|
F:------------------|------------------------------|---------|--------|
C:--0-0-12/-------7-|-10-----7-9--------7------7---|------7--|---10-9-|
G:-----------7-10---|----7-0-----7-0-10---0-10---0-|-7-10----|-7------|
D:------------------|------------------------------|---------|--------|
    . .                  . .     . .  .   . .    .   . .       .

|--------------------------------|
|--------------------------------|
|---------2---5---10--2---5------|
|-2---3---2---5---10--2---5---6--|X3
|-2---3---0---3---8---0---3---7--|
|-0---1--------------------------|

|-----------------||-----------------||-----------------||-----------------|
|-----------------||-----------------||-----------------||-----------------|
|-2------3-----2--||-3------------3--||-2------3-----2--||-3------------3--|
|-2------3--5--2--||-3------3--5--3--||-2------3--5--2--||-3------3--5--3--|
|-0--0-0-1--5--0--||-1--1-1-3--5--1--||-0--0-0-1--5--0--||-1--1-1-3--5--1--|
|-----------3-----||--------1--3-----||-----------3-----||--------1--3-----|
     . .                . .                . .                . .       

|-------------------------------||------------------|
|-------13-15-13h15p13----------||------------------|
|-14-16----------------16-12-14-||--2---5-------7---|x2
|-------------------------------||--2---5---5---7---|
|-------------------------------||--0---3---5---5---|
|-------------------------------||----------3-------|

|-------------------------------------------|
|---------------------------8~-----8~--10~--|
|---------7~-----7-9~---7-9------9----------|
|--7-9-10-----10----------------------------|
|-------------------------------------------|
|-------------------------------------------|
   . . .      .  .      . .      .   

|-16-------16-15---|-16------16-15----|--------------------|-16----16-15---|
|------18-------16-|------18-------16-|-18----18--20----20-|-----18-----16-|
|---17-------------|---17-------------|-----18--------20---|---17----------|
|------------------|------------------|---18--------20-----|---------------|
|------------------|------------------|--------------------|---------------|
|------------------|------------------|--------------------|---------------|

|-------------------------------------|------------------------------------|
|-------------------------------------|------------------------------------|
|-------------------------------------|------------------------------------|
|-7-7-7-7-8-8-------7-7----7-8-7----7-|-8-8-8-8-----------8-8-7-8-10-8-7-8-|
|-------------10-10-----10-------10---|---------8-8-10-10------------------|
|-------------------------------------|------------------------------------|
  . . . . . . .  .  . . .  . . . .  .   . . . . . . .  .  . . . . .  . . . 

|----------||-----|---------|--------|-------------|-----|---------|-------|
|----------||-----|---------|--------|-------------|-----|---------|-------|
|--10--10--||-7---|---------|-5------|-------------|-7---|---------|-------|
|--10--10--||-7---|-3-------|-5---5--|-----5-------|-7---|-3-------|-------|
|--8---8---||-5---|-3-------|-3---5--|-----5-------|-5---|-3-------|-x-7-5-|
|----------||-----|-1---1-1-|-----3--|-3-3-3---3-3-|-----|-1---1-1-|-------|

|----------|
|----------|
|---Solo---|
|----------|
|----------|
            
Submit corrections

comments powered by Disqus
↑ Back to top | Children Of Bodom Tabs for Downfall. Lyrics for acoustic guitar and electric guitar. 1 Tablatures and chords are parodies/interpretations of the original songs. You may use it for private study, scholarship, research or language learning purposes only