>
 >
Downfall 2

Downfall 2 Guitar Tabs

Children Of Bodom - Downfall 2 chords, tabs, tablatures, lyrics

Guitar lessons | Add/correct | Request | Top 50 tabs Artists:  A B C D E F G H I J K L M N O P Q R S T U V W X Y Z 0-9

Downfall 2 Guitar Tabs – Children Of Bodom

CD, Sheet music, Poster

Do you like Downfall 2? Share with your friends now
Bass TabsBass Tabs v2Bass Tabs v3TabsTabs v2Tabs v3Tabs v4Tabs v5
Children Of Bodom - Downfall(only solo)

Solo
  E5              C5           D5          E5
|---------------|-17---------------------|---------------------17-19-20-19-17-|
|-17---19---20--|-------20b(22)r20---19--|-17---------17-19-20----------------|
|---------------|------------------------|------------------------------------|
|---------------|------------------------|------------------------------------|
|---------------|------------------------|------------------------------------|
|---------------|------------------------|------------------------------------|

  C5                      D5
|-19-17----------------17-19-20-22-20-19-17-------|
|-------20-19-17-19-20----------------------20-19-|
|-------------------------------------------------|
|-------------------------------------------------|
|-------------------------------------------------|
|-------------------------------------------------|

  E5              B5
|---------------|-20p17-------17p14-------20p17-------17p14-------|
|-17---19---20--|-------19-16-------16-13-------19-16-------16-13-|
|---------------|-------------------------------------------------|
|---------------|-------------------------------------------------|
|---------------|-------------------------------------------------|
|---------------|-------------------------------------------------|

  C5      D5      C5       D5     C5        G5
|-14---15---------14--|-15--------22b(24)---22-|
|---------17----------|----17------------------|
|---------------------|------------------------|
|---------------------|------------------------|
|---------------------|------------------------|
|---------------------|------------------------|

  E5              C5           D5
|---------------|-17---------------------|
|-17---19---20--|-------20b(22)r20---13--|
|---------------|------------------------|
|---------------|------------------------|
|---------------|------------------------|
|---------------|------------------------|

6/4 time
  C5          D5          C/E         D/F#        G5          A5
|-------------------------15-------15-17----15-17-19-15-17-19-20-17-19-20-|
|-17-13-15-17-19-15-17-19----17-19-------19-------------------------------|
|-------------------------------------------------------------------------|
|-------------------------------------------------------------------------|
|-------------------------------------------------------------------------|
|-------------------------------------------------------------------------|

4/4 time
  B5
|-19-17-23-17-19-20-19-17-23-17-19-20-19-17-23-17-|
|-------------------------------------------------|
|-------------------------------------------------|
|-------------------------------------------------|
|-------------------------------------------------|
|-------------------------------------------------|


|-19-20-19-17-23-17-19-20-19-17-23-17-19b(20)-----|
|-------------------------------------------------|
|-------------------------------------------------|
|-------------------------------------------------|
|-------------------------------------------------|
|-------------------------------------------------|

  C5          B5          A5          G5
|-24-22-20-19-22-20-19-17-20-19-17-15-19-17-15-14-|
|-------------------------------------------------|
|-------------------------------------------------|
|-------------------------------------------------|
|-------------------------------------------------|
|-------------------------------------------------|

  B5    A5    G5    F#5   E5          B5
|-17-15-14-12-15-14-12-11-12~---------------------|
|-------------------------------------------------|
|-------------------------------------------------|
|-------------------------------------------------|
|-------------------------------------------------|
|-------------------------------------------------|

  E5                         A5
|-----15-15----------------|-----20-20-17-17----------|
|-----------17-17----------|-----------------17-17----|
|-----------------16-16----|-----------------------17-|
|-----------------------17-|--------------------------|
|--------------------------|--------------------------|
|--------------------------|--------------------------|

  B     C#    D#    F#      G     A     H~
|-19-17-15-19-17-15----17-|-15----15-17-19~----------|
|-------------------19----|----19--------------------|
|-------------------------|--------------------------|
|-------------------------|--------------------------|
|-------------------------|--------------------------|
|-------------------------|--------------------------|


E5                         A5
|-----15-15----------------|-----20-20-17-17----------|
|-----------17-17----------|-----------------17-17----|
|-----------------16-16----|-----------------------17-|
|-----------------------17-|--------------------------|
|--------------------------|--------------------------|
|--------------------------|--------------------------|

  B5                                                     B5  E5
|-------------17-19-20-19-17----------------------|-----------------|
|----17-19-20----------------20-19-17-------------|-----------------|
|-19----------------------------------19-17-16----|-----------------|
|----------------------------------------------19-|-17--------------|
|-------------------------------------------------|-----------------|
|-------------------------------------------------|-----------------|





Comments


Popular Children Of Bodom tabs & chords
In Your Face 2 Bass Tabs
Sixpounder Bass Tabs
Downfall 3 Tabs
Hate Me Tabs
Hate Me! Tabs
In The Shadows Tabs
In Your Face 1 Tabs
Living Dead Beat 1 Tabs
Reap And Roll Excercise 1 Tabs
Wrath Within Tabs


Song lyrics



↑ Back to top | Tablatures and chords are parodies/interpretations of the original songs. You may use it for private study, scholarship, research or language learning purposes only
© 2014 AZChords.com Contact us | Privacy policy | DMCA | Add/correct tabs | Request tabs | Top 50 tabs