>
 >
Children Of Decadence

Children Of Decadence Guitar Tabs

Children Of Bodom - Children Of Decadence chords, tabs, tablatures, lyrics

Guitar lessons | Add/correct | Request | Top 50 tabs Artists:  A B C D E F G H I J K L M N O P Q R S T U V W X Y Z 0-9

Children Of Decadence Guitar Tabs – Children Of Bodom

CD, Sheet music, Poster

Do you like Children Of Decadence? Share with your friends now
Bass TabsDrum TabsTabsTabs v2
Children Of Decadence                               


                                       I'm Sorry but there's no Bass or Keys... 
Alexi



                                                                               
D||----------------------------------|----------------------------------------|
A||--------------17--------------17--|--------------17------------------------|
F||--16------16------17------17------|--16------16------14-----------14-16-17-|
C||------14--------------14----------|------14--------------14-16-17----------|
G||----------------------------------|----------------------------------------|
D||----------------------------------|----------------------------------------|


                                                                              
----------------------------------|---------------------------14-15-17-17b---|
--------------17--------------17--|------------------13-15-17----------------|
--16------16------17------17------|--16--11-12-14-16-------------------------|
------14--------------14----------|------------------------------------------|
----------------------------------|------------------------------------------|
----------------------------------|------------------------------------------|


                                                                            
----------------------------------|----------------------------------------|
--------------17--------------17--|--------------17------------------------|
--16------16------17------17------|--16------16------14-----------14-16-17-|
------14--------------14----------|------14--------------14-16-17----------|
----------------------------------|----------------------------------------|
----------------------------------|----------------------------------------|


                                                                              
----------------------------------|------------------------------------------|
--------------17--------------15--|--17--12-12-15-15-------------------------|
--16------16------17------17------|------------------14-14-16-16-------------|
------14--------------14----------|------------------------------12-12-14----|
----------------------------------|------------------------------------------|
----------------------------------|------------------------------------------|


                                                                            
----------------------------------|----------------------------------------|
--------------17--------------17--|--------------17------------------------|
--16------16------17------17------|--16------16------14-----------14-16-17-|
------14--------------14----------|------14--------------14-16-17----------|
----------------------------------|----------------------------------------|
----------------------------------|----------------------------------------|


                                                                              
----------------------------------|---------------------------14-15-17-17b---|
--------------17--------------17--|------------------13-15-17----------------|
--16------16------17------17------|--16--11-12-14-16-------------------------|
------14--------------14----------|------------------------------------------|
----------------------------------|------------------------------------------|
----------------------------------|------------------------------------------|


                                                                            
----------------------------------|----------------------------------------|
--------------17--------------17--|--------------17------------------------|
--16------16------17------17------|--16------16------14-----------14-16-17-|
------14--------------14----------|------14--------------14-16-17----------|
----------------------------------|----------------------------------------|
----------------------------------|----------------------------------------|


                                                                              
----------------------------------|------------------------------------------|
--------------17--------------15--|--17--12-12-15-15-------------------------|
--16------16------17------17------|------------------14-14-16-16-------------|
------14--------------14----------|------------------------------12-12-14----|
----------------------------------|------------------------------------------|
----------------------------------|------------------------------------------|


                                                      
--------------------|--------------------------------|
--------------------|--------------------------------|
--------------------|--------------------------------|
--15~---------------|--------------------------------|
--------------------|--9-9--9-9-9-9-9-9-9--9-9-9-9-9-|
--------------------|--7-7--7-7-7-7-7-7-7--7-7-7-7-7-|


                                                                  
--------------------------------|--------------------------------|
--------------------------------|--------------------------------|
--------------------------------|--------------------------------|
--------------------------------|--------------------------------|
--9-9--9-9-9-9-9-9-9--9-9-9-9-9-|--9-9--9-9-9-9-9-9-9--9-9-9-9-9-|
--7-7--7-7-7-7-7-7-7--7-7-7-7-7-|--7-7--7-7-7-7-7-7-7--7-7-7-7-7-|


                                                     
-------------------|--------------------------------|
-------------------|--------------------------------|
-------------------|--------------------------------|
--3----------------|--------------------------------|
--3----------------|--9-9--9-9-9-9-9-9-9--9-9-9-9-9-|
--1----------------|--7-7--7-7-7-7-7-7-7--7-7-7-7-7-|


                                                                 
-------------------------------|--------------------------------|
-------------------------------|--------------------------------|
---------------------------6---|--------------------------------|
---------------------------7---|--------------------------------|
--9-9--9-9-9-9-9-9-9-9-9---7---|--9-9--9-9-9-9-9-9-9--9-9-9-9-9-|
--7-7--7-7-7-7-7-7-7-7-7-7-5---|--7-7--7-7-7-7-7-7-7--7-7-7-7-7-|


                                                                  
--------------------------------|--------------------------------|
--------------------------------|--------------------------------|
--------------------------------|--------------------------------|
--------------------------------|--------------------------------|
--9-9--9-9-9-9-9-9-9-9---9-9-8--|--9-9--9-9-9-9-9-9-9--9-9-9-9-9-|
--7-7--7-7-7-7-7-7-7-10--7-7-9--|--7-7--7-7-7-7-7-7-7--7-7-7-7-7-|


                                                              
-------------------------------|-----------------------------|
-------------------------------|-----------------------------|
---------------------------6---|--------------------------6--|
---------------------------7---|--9-9--9-9-9-9-9-------9-----|
--9-9--9-9-9-9-9-9-9-9-9---7---|--9-9--9-9-9-9-9----9--------|
--7-7--7-7-7-7-7-7-7-7-7-7-5---|--7-7--7-7-7-7-7-7-----------|


                                                                  
--------------------------|--12---14-----12-15-14-12----14-12----|
--------------------------|--------------------------15-------15-|
--7-6-4-9-7-6-------------|--------------------------------------|
--------------9------9----|--------------------------------------|
--------------------------|--------------------------------------|
--------------------------|--------------------------------------|


                                                              
--12---14-----12-15-14-12----14-12----|--12---10-------------|
--------------------------15-------15-|----------------------|
--------------------------------------|----------------------|
--------------------------------------|----------------------|
--------------------------------------|----------------------|
--------------------------------------|----------------------|


                                                                    
--12---10---------9h10h9h---|--12---14-----12-15-14-12----14-12----|
-------------------------12-|--------------------------15-------15-|
----------------------------|--------------------------------------|
----------------------------|--------------------------------------|
----------------------------|--------------------------------------|
----------------------------|--------------------------------------|


                                                              
--12---14-----12-15-14-12----14-12----|--12---10-------------|
--------------------------15-------15-|----------------------|
--------------------------------------|----------------------|
--------------------------------------|----------------------|
--------------------------------------|----------------------|
--------------------------------------|----------------------|


                                                        
--12---10-------------|--------------------------------|
----------------------|--------------------------------|
----------------------|--------------------------------|
----------------------|--------------------------------|
----------------------|--2-2--2-2-2-2-2-2-2--2-2-2-2-2-|
----------------------|--0-0--0-0-0-0-0-0-0--0-0-0-0-0-|


                                                                 
-------------------------------|--------------------------------|
-------------------------------|--------------------------------|
-------------------------------|--------------------------------|
---------------------------0---|--------------------------------|
--2-2--2-2-2-2-2-2-2-2-2-2-0---|--2-2--2-2-2-2-2-2-2--2-2-2-2-2-|
--0-0--0-0-0-0-0-0-0-0-0-0-----|--0-0--0-0-0-0-0-0-0--0-0-0-0-0-|


                                                                   
---------------------------------|--------------------------------|
---------------------------------|--------------------------------|
---------------------------------|--------------------------------|
---------------------------------|--------------------------------|
--7-7-10--7-7-9--7-7-11--7-7-10--|--2-2--2-2-2-2-2-2-2--2-2-2-2-2-|
---------------------------------|--0-0--0-0-0-0-0-0-0--0-0-0-0-0-|


                                                                 
-------------------------------|--------------------------------|
-------------------------------|--------------------------------|
-------------------------------|--------------------------------|
---------------------------0---|--------------------------------|
--2-2--2-2-2-2-2-2-2-2-2-2-0---|--2-2--2-2-2-2-2-2-2--2-2-2-2-2-|
--0-0--0-0-0-0-0-0-0-0-0-0-----|--0-0--0-0-0-0-0-0-0--0-0-0-0-0-|


                                                     
-------------------------|--------------------------|
-------------------------|--------------17-17-12-12-|
--------------7~---------|--------------------------|
--------5-7-9------------|--------------------------|
--5-7-9------------------|--------------------------|
-------------------------|--------------------------|


                                                                
--------------------------------------------|------------------|
--15-15-------------------------------------|------------------|
--------14-14-16-16-12-12-14-14-------------|------------------|
--------------------------------12-12-14----|------------------|
--------------------------------------------|------------------|
--------------------------------------------|------------------|


                                                         
-----------------------------|--------------------------|
-----------------------------|--------------17-17-12-12-|
----------------9h-12h---11--|--------------------------|
--10h-12h---10---------------|--------------------------|
-----------------------------|--------------------------|
-----------------------------|--------------------------|


                                                                
--------------------------------------------|------------------|
--15-15-------------------------------------|------------------|
--------14-14-16-16-12-12-14-14-------------|------------------|
--------------------------------12-12-14----|------------------|
--------------------------------------------|------------------|
--------------------------------------------|------------------|


                                                       
-----------------------------|------------------------|
-----------------------------|------------------------|
----------------9h-12h---11--|--9---7---9-------------|
--10h-12h---10---------------|--9---7---9-------------|
-----------------------------|--7---5---7----2--2--2--|
-----------------------------|---------------0--0--0--|


                                                      
----------------------------|------------------------|
----------------------------|------------------------|
----------------------------|--9---7---9-------------|
----------------------------|--9---7---9-------------|
--2--2--2-2-2--2--2-2-2--2--|--7---5---7----2--2--2--|
--0--0--0-0-0--0--0-0-0--0--|---------------0--0--0--|


                                                        
------------------------------|------------------------|
-----------12-----------------|------------------------|
-----9------------12--11------|--9---7---9-------------|
--------9------9----------12--|--9---7---9-------------|
--7---------------------------|--7---5---7----2--2--2--|
------------------------------|---------------0--0--0--|


                                                       
----------------------------|-------------------------|
----------------------------|-------------------------|
----------------------------|--10---7---9-------------|
----------------------------|--10---7---9-------------|
--2--2--2-2-2--2--2-2-2--2--|--8----5---7----2--2--2--|
--0--0--0-0-0--0--0-0-0--0--|----------------0--0--0--|


                                                           
----------------------------|-----------------------------|
----------------------------|-----------------------------|
----------------------------|-----------------------------|
----------------------------|---------------------------9-|
--2--2--2-2-2--2--2-2-2--2--|--2--2--2-2-2--2--2-2-2--7---|
--0--0--0-0-0--0--0-0-0--0--|--0--0--0-0-0--0--0-0-0------|


                                                        
----------------------------|--------------------------|
----------------------------|--------------------------|
--9-------------------------|--------------------------|
----------------------------|---------------------3----|
-----2--2-2-2--2--2-2-2--2--|--2--2--2-2-2--2-2---3----|
-----0--0-0-0--0--0-0-0--0--|--0--0--0-0-0--0-0---1----|


                                                                      
----------14--17--16--14------14--|----------14--17--16----------14--|
------14------------------17------|------14--------------17--14------|
----------------------------------|----------------------------------|
--16------------------------------|--16------------------------------|
----------------------------------|----------------------------------|
----------------------------------|----------------------------------|


                                                                
--17---21---17--16------------|--14-16-17-16-14----14----------|
---------------------19---17--|-----------------17-------------|
------------------------------|--------------------------------|
------------------------------|--------------------------------|
------------------------------|--------------------------------|
------------------------------|--------------------------------|


                                                                      
----------14--17--16--14------14--|----------14--17--16--14------14--|
------14------------------17------|------14------------------17------|
----------------------------------|----------------------------------|
--16------------------------------|--16------------------------------|
----------------------------------|----------------------------------|
----------------------------------|----------------------------------|


                                                                            
--17---21---17--16------------|--14-16-17-16-14----14----14-16-17-16-14----|
---------------------19---17--|-----------------17----------------------17-|
------------------------------|--------------------------------------------|
------------------------------|--------------------------------------------|
------------------------------|--------------------------------------------|
------------------------------|--------------------------------------------|


                                             
--14-16-17-16-14----14----14-16-17-16-14----|
-----------------17----------------------17-|
--------------------------------------------|
--------------------------------------------|
--------------------------------------------|
--------------------------------------------|


                                                                        
--17-19-21-19-17----17----17-19-21-19-17----|--21h19h17h16-------------|
-----------------21----------------------21-|--------------------------|
--------------------------------------------|--------------------------|
--------------------------------------------|--------------------------|
--------------------------------------------|--------------------------|
--------------------------------------------|--------------------------|


                                                                            
----------------------------------|----------------------------------------|
--------------16--------------16--|--------------16------------------------|
--15------15------16------16------|--15------15------13-----------13-15-16-|
------13--------------13----------|------13--------------13-15-16----------|
----------------------------------|----------------------------------------|
----------------------------------|----------------------------------------|


                                                                              
----------------------------------|---------------------------13-14-16-16b---|
--------------16--------------16--|------------------12-14-16----------------|
--15------15------16------16------|--15--10-11-13-15-------------------------|
------13--------------13----------|------------------------------------------|
----------------------------------|------------------------------------------|
----------------------------------|------------------------------------------|


                                                                            
----------------------------------|----------------------------------------|
--------------16--------------16--|--------------16------------------------|
--15------15------16------16------|--15------15------13-----------13-15-16-|
------13--------------13----------|------13--------------13-15-16----------|
----------------------------------|----------------------------------------|
----------------------------------|----------------------------------------|


                                   
----------------------------------|
--------------16--------------16--|
--15------15------16------16------|
------13--------------13----------|
----------------------------------|
----------------------------------|


                                                                  
--16h14h11h14h11h9h----------------------------------------------|
-------------------16h14h11h16h11h9h14h9h7h----------------------|
-------------------------------------------15h11h8h13h8h6h11h6h8-|


                                                                              
--12---14-----12-15-14-12----14-12----|--12---14-----12-15-14-12----14-12----|
--------------------------15-------15-|--------------------------15-------15-|
--------------------------------------|--------------------------------------|
--------------------------------------|--------------------------------------|
--------------------------------------|--------------------------------------|
--------------------------------------|--------------------------------------|


                                                    
--12---10-------------|--12---10---------9h10h9h---|
----------------------|-------------------------12-|
----------------------|----------------------------|
----------------------|----------------------------|
----------------------|----------------------------|
----------------------|----------------------------|


                                                                              
--12---14-----12-15-14-12----14-12----|--12---14-----12-15-14-12----14-12----|
--------------------------15-------15-|--------------------------15-------15-|
--------------------------------------|--------------------------------------|
--------------------------------------|--------------------------------------|
--------------------------------------|--------------------------------------|
--------------------------------------|--------------------------------------|


                                                                               
--12---10-------------|--12---10-------------|--------------------------------|
----------------------|----------------------|--------------------------------|
----------------------|----------------------|--------------------------------|
----------------------|----------------------|--------------------------------|
----------------------|----------------------|--6-6--6-6-6-6-6-6-6--6-6-6-6-6-|
----------------------|----------------------|--------------------------------|


                                                                 
-------------------------------|--------------------------------|
-------------------------------|--------------------------------|
---------------------------4---|--------------------------------|
---------------------------4---|--------------------------------|
--6-6--6-6-6-6-6-6-6-6-6-6-2---|--6-6--6-6-6-6-6-6-6--6-6-6-6-6-|
-------------------------------|--------------------------------|


                                                                 
-------------------------------|--------------------------------|
-------------------------------|--------------------------------|
---------------------------6---|--------------------------------|
---------------------------6---|--------------------------------|
--6-6--6-6-6-6-6-6-6-6-6-6-4---|--6-6--6-6-6-6-6-6-6--6-6-6-6-6-|
-------------------------------|--------------------------------|


                                                                 
-------------------------------|--------------------------------|
-------------------------------|--------------------------------|
---------------------------4---|--------------------------------|
---------------------------4---|--------------------------------|
--6-6--6-6-6-6-6-6-6-6-6-6-2---|--6-6--6-6-6-6-6-6-6--6-6-6-6-6-|
-------------------------------|--------------------------------|


                                                            
------------------------------||---------------------------|
------------------------------||---------------17-17-12-12-|
------------------------------||*--------------------------|
------8------7------9------8--||*--------------------------|
--6-9----6-9----6-9----6-9----||---------------------------|
------------------------------||---------------------------|


                                                                
--------------------------------------------|------------------|
--15-15-------------------------------------|------------------|
--------14-14-16-16-12-12-14-14-------------|------------------|
--------------------------------12-12-14----|------------------|
--------------------------------------------|------------------|
--------------------------------------------|------------------|


                                                         
-----------------------------|--------------------------|
-----------------------------|--------------17-17-12-12-|
----------------9h-12h---11--|--------------------------|
--10h-12h---10---------------|--------------------------|
-----------------------------|--------------------------|
-----------------------------|--------------------------|


                                                                
--------------------------------------------|------------------|
--15-15-------------------------------------|------------------|
--------14-14-16-16-12-12-14-14-------------|------------------|
--------------------------------12-12-14----|------------------|
--------------------------------------------|------------------|
--------------------------------------------|------------------|


                                                         
------------------------------||------------------------|
------------------------------||------------------------|
----------------9h-12h---11--*||--9---7---9-------------|
--10h-12h---10---------------*||--9---7---9-------------|
------------------------------||--7---5---7----2--2--2--|
------------------------------||---------------0--0--0--|


                                                      
----------------------------|------------------------|
----------------------------|------------------------|
----------------------------|--9---7---9-------------|
----------------------------|--9---7---9-------------|
--2--2--2-2-2--2--2-2-2--2--|--7---5---7----2--2--2--|
--0--0--0-0-0--0--0-0-0--0--|---------------0--0--0--|


                                                        
------------------------------|------------------------|
-----------12-----------------|------------------------|
-----9------------12--11------|--9---7---9-------------|
--------9------9----------12--|--9---7---9-------------|
--7---------------------------|--7---5---7----2--2--2--|
------------------------------|---------------0--0--0--|


                                                       
----------------------------|-------------------------|
----------------------------|-------------------------|
----------------------------|--10---7---9-------------|
----------------------------|--10---7---9-------------|
--2--2--2-2-2--2--2-2-2--2--|--8----5---7----2--2--2--|
--0--0--0-0-0--0--0-0-0--0--|----------------0--0--0--|


                                                              
--------------------------|----------14--17--16--14------14--|
--------------------------|------14------------------17------|
--------------------------|----------------------------------|
---------------------3----|--16------------------------------|
--2--2--2-2-2--2-2---3----|----------------------------------|
--0--0--0-0-0--0-0---1----|----------------------------------|


                                                                  
----------14--17--16--14------14--|--17---21---17--16------------|
------14------------------17------|---------------------19---17--|
----------------------------------|------------------------------|
--16------------------------------|------------------------------|
----------------------------------|------------------------------|
----------------------------------|------------------------------|


                                                                    
--14-16-17-16-14----14----------|----------14--17--16--14------14--|
-----------------17-------------|------14------------------17------|
--------------------------------|----------------------------------|
--------------------------------|--16------------------------------|
--------------------------------|----------------------------------|
--------------------------------|----------------------------------|


                                                                  
----------14--17--16--14------14--|--17---21---17--16------------|
------14------------------17------|---------------------19---17--|
----------------------------------|------------------------------|
--16------------------------------|------------------------------|
----------------------------------|------------------------------|
----------------------------------|------------------------------|


                                             
--14-16-17-16-14----14----14-16-17-16-14----|
-----------------17----------------------17-|
--------------------------------------------|
--------------------------------------------|
--------------------------------------------|
--------------------------------------------|


                                             
--14-16-17-16-14----14----14-16-17-16-14----|
-----------------17----------------------17-|
--------------------------------------------|
--------------------------------------------|
--------------------------------------------|
--------------------------------------------|


                                                                      
--17-19-21-19-17----17----17-19-21-19-17----|------------------------|
-----------------21----------------------21-|------------------------|
--------------------------------------------|-------------7---6---7--|
--------------------------------------------|--4---7---6--7---6---7--|
--------------------------------------------|--4---7---6--5---4---5--|
--------------------------------------------|--2---5---4-------------|


                                             
--------------------------------------------|
-----12---10-12-12-10---12-12---10-12-12-10-|
--9-----9-------------9-------9-------------|
--------------------------------------------|
--------------------------------------------|
--------------------------------------------|


                                               
----------------------------------------------|
----12-13---12-13-10-12----10-----------------|
--9-------9-------------12----11-12-9-11----9-|
-----------------------------------------12---|
----------------------------------------------|
----------------------------------------------|


                                               
----------------------------------------------|
-------12---10-12-12-10---12-12---10-12-12-10-|
--9-------9-------------9-------9-------------|
----12----------------------------------------|
----------------------------------------------|
----------------------------------------------|


                                               
----------------------------------------------|
----12-13---12-13-10-12----10-----------------|
--9-------9-------------12----11-12-9-11----9-|
-----------------------------------------12---|
----------------------------------------------|
----------------------------------------------|


                                               
----------------------------------------------|
-------12---10-12-12-10---12-12---10-12-12-10-|
--9-------9-------------9-------9-------------|
----12----------------------------------------|
----------------------------------------------|
----------------------------------------------|


                                               
----------------------------------------------|
----12-13---12-13-10-12----10-----------------|
--9-------9-------------12----11-12-9-11----9-|
-----------------------------------------12---|
----------------------------------------------|
----------------------------------------------|


                                               
----------------------------------------------|
-------12---10-12-12-10---12-12---10-12-12-10-|
--9-------9-------------9-------9-------------|
----12----------------------------------------|
----------------------------------------------|
----------------------------------------------|


                                               
----------------------------------------------|
----12-13---12-13-10-12----10-----------------|
--9-------9-------------12----11-12-9-11----9-|
-----------------------------------------12---|
----------------------------------------------|
----------------------------------------------|


                                                   
--------------------------------------------------|
--------15----13-15-15-13----15-15----13-15-15-13-|
--12-------12-------------12-------12-------------|
-----12-------------------------------------------|
--------------------------------------------------|
--------------------------------------------------|


                                                   
--------------------------------------------------|
-----15-16----15-16-13-15----13-------------------|
--12-------12-------------15----14-15-12-14----12-|
--------------------------------------------15----|
--------------------------------------------------|
--------------------------------------------------|


                                                   
--------------------------------------------------|
--------15----13-15-15-13----15-15----13-15-15-13-|
--12-------12-------------12-------12-------------|
-----12-------------------------------------------|
--------------------------------------------------|
--------------------------------------------------|


                                                   
--------------------------------------------------|
-----15-16----15-16-13-15----13-------------------|
--12-------12-------------15----14-15-12-14----12-|
--------------------------------------------15----|
--------------------------------------------------|
--------------------------------------------------|


                                                   
--------19----17-19-19-17----19-19----17-19-19-17-|
--17-------17-------------17-------17-------------|
--------------------------------------------------|
-----15-------------------------------------------|
--------------------------------------------------|
--------------------------------------------------|


                                                   
-----19-20----19-20-17-19----17-------------------|
--17-------17-------------20----19-20-17-19----17-|
--------------------------------------------19----|
--------------------------------------------------|
--------------------------------------------------|
--------------------------------------------------|


                                                   
--------------------17----19-17-20-19-19-20-17-19-|
--17----19-17-20-19----20-------------------------|
-----19-------------------------------------------|
--------------------------------------------------|
--------------------------------------------------|
--------------------------------------------------|


                                                   
-----17-------------------------------------------|
--20----19-20-17-19-20-17-19-20-17-19----17-19----|
--------------------------------------20-------20-|
--------------------------------------------------|
--------------------------------------------------|
--------------------------------------------------|


                                                   
--19-15----------------------------15-19-15-------|
--------17----------------------17----------17----|
-----------16----------------16----------------16-|
--------------17----------17----------------------|
-----------------19-14-19-------------------------|
--------------------------------------------------|


                                                   
--24-22-19----------19-17-15----------17-15-------|
-----------22-20-17----------17-15-12-------17-15-|
--------------------------------------------------|
--------------------------------------------------|
--------------------------------------------------|
--------------------------------------------------|


                                                   
--------------19-15-------20-19-17----------------|
--20-17----------------15----------20-19-17-------|
--------19-16-------16----------------------19-17-|
--------------------------------------------------|
--------------------------------------------------|
--------------------------------------------------|


                                     
------------------------------------|
------------------------------------|
--16-17-19-17-16--------------------|
-----------------19-17-16-14r-------|
------------------------------------|
------------------------------------|


                                                   
--19-15----------------------------15-19-15-------|
--------17----------------------17----------17----|
-----------16----------------16----------------16-|
--------------17----------17----------------------|
-----------------19-14-19-------------------------|
--------------------------------------------------|


                                                   
--24-22-19----------19-17-15----------17-15-------|
-----------22-20-17----------17-15-12-------17-15-|
--------------------------------------------------|
--------------------------------------------------|
--------------------------------------------------|
--------------------------------------------------|


                                                               
--------------19-15-------20-19-17-20-19-17-------------------|
--20-17----------------15-------------------20-19-17-20-19-17-|
--------19-16-------16----------------------------------------|
--------------------------------------------------------------|
--------------------------------------------------------------|
--------------------------------------------------------------|


                                                                           
--------------------------------------------------15/24-19----------------|
-----------------------------------------------17----------20-------------|
--19-17-16-19-17-16-------------------------16----------------21-16-------|
--------------------19-17-16-19-17-16----17-------------------------17----|
--------------------------------------19-------------------------------19-|


                                                 
-----------------------|------------------------|
-----------------------|------------------11~---|
-----------------------|----------11~-----------|
------------------8~---|--11~-------------------|
----------10~----------|------------------------|
--11~------------------|------------------------|


                                                                          
--------------------------------------17-17-18-18-|--21~-------22b-------|
--------------------------16-16-19-19-------------|----------------------|
--------------14-14-15-15-------------------------|----------------------|
--13-13-16-16-------------------------------------|----------------------|
--------------------------------------------------|----------------------|
--------------------------------------------------|----------------------|


                                                   
--18----------------21----------------18----------|
-----17-16-14-16-17----17-16-14-16-17----17-16-14-|
--------------------------------------------------|
--------------------------------------------------|
--------------------------------------------------|
--------------------------------------------------|


                                                   
--21----------------------------------18----------|
-----20-17----17-20-19-20-17----17-20----20-17----|
-----------18----------------18----------------18-|
--------------------------------------------------|
--------------------------------------------------|
--------------------------------------------------|


                                                         
-----------------------------------------------19-21-22-|
--------------------------------------19-21-22----------|
-----------------------------18-19-21-------------------|
--------------------18-19-21----------------------------|
-----------17-19-21-------------------------------------|
--17-19-21----------------------------------------------|


                                                                           
--20-19----22-----24~---------|-------------------|-----------------------|
--------20-----20-------------|-------------------|-----------------------|
------------------------------|-------------------|--5----7----9----11----|
------------------------------|--2----------------|-----------------------|
------------------------------|--2----------------|--3----5----7----9-----|
------------------------------|--0----------------|-----------------------|


                                                              
-------------------|---------------------|-------------------|
-------------------|---------------------|-------------------|
-------------------|------5---------7----|-------------------|
--2----------------|------5----5----7----|--2----------------|
--2----------------|------3----5----5----|--2----------------|
--0----------------|-----------3---------|--0----------------|


                                                                           
-----------------------|---------------------------|----------------------|
-----------------------|---------------------------|----------------------|
--5----7----9----11----|---------------------------|-------5----7----7----|
-----------------------|--2------------------------|-------5----5----7----|
--3----5----7----9-----|--2------------7-7-7-7-7-7-|--7----3----5----5----|
-----------------------|--0------------------------|----------------------|


                                                                              
-----------------------|------------------------|----------------------------|
-----------------------|------------------------|----------------------------|
-----------------------|--9---7---9-------------|----------------------------|
----x-x-5----9----7----|--9---7---9-------------|----------------------------|
----x-x----------------|--7---5---7----2--2--2--|--2--2--2-2-2--2--2-2-2--2--|
----x-x----------------|---------------0--0--0--|--0--0--0-0-0--0--0-0-0--0--|


                                                        
------------------------|------------------------------|
------------------------|-----------12-----------------|
--9---7---9-------------|-----9------------12--11------|
--9---7---9-------------|--------9------9----------12--|
--7---5---7----2--2--2--|--7---------------------------|
---------------0--0--0--|------------------------------|


                                                                                
------------------------|----------------------------|-------------------------|
------------------------|----------------------------|-------------------------|
--9---7---9-------------|----------------------------|--10---7---9-------------|
--9---7---9-------------|----------------------------|--10---7---9-------------|
--7---5---7----2--2--2--|--2--2--2-2-2--2--2-2-2--2--|--8----5---7----2--2--2--|
---------------0--0--0--|--0--0--0-0-0--0--0-0-0--0--|----------------0--0--0--|


                                                                              
----------------------------|---------------------------16-19-15-------------|
----------------------------|------------------------18----------17----------|
----------------------------|---------------------17----------------16-------|
----------------------------|------------------18----------------------17----|
--2--2--2-2-2--2--2-2-2--2--|--2--2--2-2-2--20----------------------------19-|
--0--0--0-0-0--0--0-0-0--0--|--0--0--0-0-0-----------------------------------|


                                                        
----------------------------|--------------------------|
----------------------------|--------------------------|
----------------------------|--------------------------|
----------------------------|---------------------3----|
--2--2--2-2-2--2--2-2-2--2--|--2--2--2-2-2--2-2---3----|
--0--0--0-0-0--0--0-0-0--0--|--0--0--0-0-0--0-0---1----|


                                                                      
----------14--17--16--14------14--|----------14--17--16----------14--|
------14------------------17------|------14--------------17--14------|
----------------------------------|----------------------------------|
--16------------------------------|--16------------------------------|
----------------------------------|----------------------------------|
----------------------------------|----------------------------------|


                                                                
--17---21---17--16------------|--14-16-17-16-14----14----------|
---------------------19---17--|-----------------17-------------|
------------------------------|--------------------------------|
------------------------------|--------------------------------|
------------------------------|--------------------------------|
------------------------------|--------------------------------|


                                                                      
----------14--17--16--14------14--|----------14--17--16----------14--|
------14------------------17------|------14--------------17--14------|
----------------------------------|----------------------------------|
--16------------------------------|--16------------------------------|
----------------------------------|----------------------------------|
----------------------------------|----------------------------------|


                                                                            
--17---21---17--16------------|--14-16-17-16-14----14----14-16-17-16-14----|
---------------------19---17--|-----------------17----------------------17-|
------------------------------|--------------------------------------------|
------------------------------|--------------------------------------------|
------------------------------|--------------------------------------------|
------------------------------|--------------------------------------------|


                                             
--14-16-17-16-14----14----14-16-17-16-14----|
-----------------17----------------------17-|
--------------------------------------------|
--------------------------------------------|
--------------------------------------------|
--------------------------------------------|


                                                                      
--17-19-21-19-17----17----17-19-21-19-17----|------------------------|
-----------------21----------------------21-|------------------------|
--------------------------------------------|-------------7---6---7--|
--------------------------------------------|--4---7---6--7---6---7--|
--------------------------------------------|--4---7---6--5---4---5--|
--------------------------------------------|--2---5---4-------------|


                                                                 
--------------------------------|-------------------------------|
--------------------------------|-------------------------------|
--------------------------------|-------------------------------|
--------------------------------|---------------------------2---|
--4-4--4-4-4-4-4-4-4--4-4-4-4-4-|--4-4--4-4-4-4-4-4-4-4-4-4-2---|
--2-2--2-2-2-2-2-2-2--2-2-2-2-2-|--2-2--2-2-2-2-2-2-2-2-2-2-0---|


                                                                 
--------------------------------|-------------------------------|
--------------------------------|-------------------------------|
--------------------------------|-------------------------------|
--------------------------------|-------------------------------|
--4-4--4-4-4-4-4-4-4--4-4-4-4-4-|--4-4--4-4-4-4-4-4-4-4--4-4-3--|
--2-2--2-2-2-2-2-2-2--2-2-2-2-2-|--2-2--2-2-2-2-2-2-2-5--2-2-4--|


                                                                 
--------------------------------|-------------------------------|
--------------------------------|-------------------------------|
--------------------------------|-------------------------------|
--------------------------------|---------------------------2---|
--4-4--4-4-4-4-4-4-4--4-4-4-4-4-|--4-4--4-4-4-4-4-4-4-4-4-4-2---|
--2-2--2-2-2-2-2-2-2--2-2-2-2-2-|--2-2--2-2-2-2-2-2-2-2-2-2-0---|


                                                                    
--------------------------------|----------------------------------|
--------------------------------|----------------------------------|
--------------------------------|----------------------------------|
--------------------------------|----------------------------------|
--4-4--4-4-4-4-4-4-4--4-4-4-4-4-|--9-9-12--9-9-11--9-9-13--9-9-12--|
--2-2--2-2-2-2-2-2-2--2-2-2-2-2-|----------------------------------|


                       
---------------------||
---------------------||
---------------------||
--4---2---4----------||
--4---2--------------||
--2---0--------------||





Comments


Popular Children Of Bodom tabs & chords
Hate Me 2 Bass Tabs
Children Of Decadence Drum Tabs
Silent Night Bodom Night Drum Tabs
Angels Don't Kill 1 Tabs
Angels Don't Kill 2 Tabs
Are You Dead Yet? Tabs
Hate Crew Death Roll Tabs
Lobodomy Tabs
Touch Like An Angel Of Death Tabs
Were Not Gonna Fall 1 Tabs


Song lyrics



↑ Back to top | Tablatures and chords are parodies/interpretations of the original songs. You may use it for private study, scholarship, research or language learning purposes only
© 2014 AZChords.com Contact us | Privacy policy | DMCA | Add/correct tabs | Request tabs | Top 50 tabs