>
 >
Bodom Beach Terror 3

Bodom Beach Terror 3 Guitar Tabs

Children Of Bodom - Bodom Beach Terror 3 chords, tabs, tablatures, lyrics

Guitar lessons | Add/correct | Request | Top 50 tabs Artists:  A B C D E F G H I J K L M N O P Q R S T U V W X Y Z 0-9

Bodom Beach Terror 3 Guitar Tabs – Children Of Bodom

CD, Sheet music, Poster

Do you like Bodom Beach Terror 3? Share with your friends now
Bass TabsTabsTabs v2Tabs v3Tabs v4Tabs v5
                              BODOM BEACH TERROR
                        As recorded by Children Of Bodom
                    (From the 2003 Album HATE CREW DEATHROLL)

Gtr I (D G C F A D) - 'Alexi'
Gtr II (D G C F A D) - 'Alexander'

 Drum Intro
  Q=150
 4/4
  Gtr I
  Wx3          W
|------------|-------|
|------------|-------|
|------------|-------|
|------------|-------|
|------------|-------|
|------------|-x\----|


    F#5                   G5  F#5                 A5G5
    Gtrs I, II
    E E S S S S S S S S E E   E E S S S S S S S S E E
||--------------------------|-------------------------|
||o-------------------------|-------------------------|
||--------------------------|-------------------------|
||--4-------------------4-5-|-4-------------------7-5-|
||o-4-------------------4-5-|-4-------------------7-5-|
||--2---2-2-2-2---2-2---2-3-|-2---2-2-2-2---2-2---5-3-|


  F#5                   G5  F#5         E5
  E E S S S S S S S S E E   E E S S S S S S S S S S S S
|-------------------------|------------------------------||
|-------------------------|-----------------------------o||
|-------------------------|------------------------------||
|-4-------------------4-5-|-4----------------------------||
|-4-------------------4-5-|-4---------------------------o||
|-2---2-2-2-2---2-2---2-3-|-2---2-2-2-2-0-0-0-0-0-0-0-0--||


 Verse
  (E5)
  S S S E S E S S E  S S E   S S S E S E S S E E E
|--------------------------|-----------------------|
|--------------------------|-----------------------|
|--------------------------|-----------------------|
|--------------------------|-----------------------|
|-5h7---------5h7---10p7---|-5h7-------------------|
|-----0-0-0-0-----0------0-|-----0-0-0-0-1p0-0-3p1-|


                                           N.C.
                                           |-3-| |-3-| |-3-| |-3-|
  S S S E S E S S E  S S E   S S S S S S E S S S S S S S S S S S S
|--------------------------|----------------------------------------|
|--------------------------|----------------------------------------|
|--------------------------|-----------------------------------7-9--|
|--------------------------|---------------------------5-7-9-9------|
|-5h7---------5h7---10p7---|-5h7-----------------5-7-9--------------|
|-----0-0-0-0-----0------0-|-----0-0-0-0-0-5-7-9--------------------|


    $
    (E5)                                         G5F5
    S S S E S E S S E  S S E   S S S E S E S S E E E
||---------------------------|-----------------------|
||o--------------------------|-----------------------|
||---------------------------|-----------------------|
||---------------------------|-----------------------|
||o-5h7---------5h7---10p7---|-5h7---------------5-3-|
||------0-0-0-0-----0------0-|-----0-0-0-0-1p0-0-3-1-|


                                             To Coda
                                             C5 BbEbD5
  S S S E S E S S E  S S E   S S S S S S S S  E E E E
|--------------------------|------------------------------||
|--------------------------|-----------------------------o||
|--------------------------|------------------------------||
|--------------------------|----------------------8-7-----||
|-5h7---------5h7---10p7---|-5h7-------------10-8-6-5----o||
|-----0-0-0-0-----0------0-|-----0-0-0-0-0-0--8-6---------||


 Bridge
  F#5                 E5        F#5
  S S S S E E S S S S S S S S   S S S S E E H
|-----------------------------|------------------|
|-----------------------------|------------------|
|-----------------------------|------------------|
|---------4-------------------|---------4--------|
|---------4-------------------|---------4--------|
|-2-2-2-2-2---2-2-2-2-0-0-0-0-|-2-2-2-2-2--------|


                      E5        F#5         G5F#E5A#5
                                            |-3-|
  S S S S E E S S S S S S S S   S S S S E E E E E Q
|-----------------------------|------------------------|
|-----------------------------|------------------------|
|-----------------------------|-------------------3----|
|---------4-------------------|---------4---------3----|
|---------4-------------------|---------4---5-4-2-1----|
|-2-2-2-2-2---2-2-2-2-0-0-0-0-|-2-2-2-2-2---3-2-0------|


  F#5                 E5        F#5
  Gtr I
  S S S S E E S S S S S S S S   S S S S E E H
|-----------------------------|------------------|
|-----------------------------|------------------|
|-----------------------------|------------------|
|---------4-------------------|---------4--------|
|---------4-------------------|---------4--------|
|-2-2-2-2-2---2-2-2-2-0-0-0-0-|-2-2-2-2-2--------|
|
| Gtr II
| S S S S E E S S S S S S S S   S S S S E E H
|-----------------------------|------------------|
|-----------------------------|------------------|
|-----------------------------|------------------|
|-7-7-7-7-7---7-7-7-7-6-6-6-6-|-7-7-7-7-7--------|
|-----------------------------|------------------|
|-----------------------------|------------------|


                      E5        F#5      E5
  S S S S E E S S S S S S S S   E  S  E.  E  E  E  Q
|-----------------------------|----------------------------|
|-----------------------------|----------------14-12\------|
|-----------------------------|-----------9-11-------------|
|---------4-------------------|-----------9----------------|
|---------4-------------------|-4--4--4--------------------|
|-2-2-2-2-2---2-2-2-2-0-0-0-0-|-2--2--2--------------------|
|
| S S S S E E S S S S S S S S   E  S  E.  E  E  E  E   E
|-----------------------------|-------------------14--12\--|
|-----------------------------|---10-10--10----10----------|
|-----------------------------|--------------9-------------|
|-7-7-7-7-7---7-7-7-7-6-6-6-6-|-7--------------------------|
|-----------------------------|----------------------------|
|-----------------------------|----------------------------|


 Pre-Chorus
  C#5                 D5        F#5       A5
  W                   E S S S S E S S S S E S S
|-------------------|---------------------------|
|-------------------|---------------------------|
|-6-----------------|-7---------6---------9-----|
|-6-----------------|-7---------4-4-4-4-4-7-7-7-|
|-4-----------------|-5-5-5-5-5-----------------|
|-------------------|---------------------------|
|
| Q   E   Q.   +Q     E S S S S E S S S S E S S
|-------------------|---------------------------|
|-----4--(4)---(4)--|---------------------------|
|-6--(6)--6----(6)--|-7---------6---------9-----|
|-6--(6)-(6)---(6)--|-7---------4-4-4-4-4-7-7-7-|
|-4--(4)-(4)---(4)--|-5-5-5-5-5-----------------|
|-------------------|---------------------------|


  C#5                 D5        F#5       A5
  W                   E S S S S E S S S S E S S
|-------------------|----------------------------|
|-------------------|----------------------------|
|-6-----------------|-7---------6---------9------|
|-6-----------------|-7---------4-4-4-4-4-7-7-7--|
|-4-----------------|-5-5-5-5-5------------------|
|-------------------|----------------------------|
|
| Q   E   Q.   +Q     E S S S S E S S S S E S S
|-------------------|----------------------------|
|-----4--(4)---(4)--|----------------------------|
|-6--(6)--6----(6)--|-7---------6---------9------|
|-6--(6)-(6)---(6)--|-7---------4-4-4-4-4-7-7-7--|
|-4--(4)-(4)---(4)--|-5-5-5-5-5------------------|
|-------------------|----------------------------|


  F#5                         G5        A5        B5
  E S S S S E S S S S E S S   E S S S S E S S S S  E S S
|---------------------------|----------------------------|
|---------------------------|----------------------------|
|-6---------6---------6-----|-7---------9---------11-----|
|-4-4-4-4-4-4-4-4-4-4-4-4-4-|-5-5-5-5-5-7-7-7-7-7--9-9-9-|
|---------------------------|----------------------------|
|---------------------------|----------------------------|
|
| E S S S S E S S S S E S S   E S S S S E S S S S  E S S
|---------------------------|----------------------------|
|---------------------------|----------------------------|
|-6---------6---------6-----|-7---------9---------11-----|
|-4-4-4-4-4-4-4-4-4-4-4-4-4-|-5-5-5-5-5-7-7-7-7-7--9-9-9-|
|---------------------------|----------------------------|
|---------------------------|----------------------------|


  A5                          E5
  E S S S S E S S S S E S S   E E E  H     E
|---------------------------|-------22s===12-|
|---------------------------|----------------|
|-9---------9---------9-----|-----9----------|
|-7-7-7-7-7-7-7-7-7-7-7-7-7-|---9------------|
|---------------------------|-7--------------|
|---------------------------|----------------|
|
| E S S S S E S S S S E S S   W
|---------------------------|----------------|
|---------------------------|----------------|
|-9---------9---------9-----|-9--------------|
|-7-7-7-7-7-7-7-7-7-7-7-7-7-|-9--------------|
|---------------------------|-7--------------|
|---------------------------|----------------|


  F#5  C#5       D5          E5
  Gtrs I, II
  Q  E  E  Q   E  E    Q   E  E  Q   Q
|-------------------|-------------------|
|-------------------|-------------------|
|-------------------|-------------------|
|-4--4S11-11--11S12-|-12--12S14-14--14--|
|-4--4S11-11--11S12-|-12--12S14-14--14--|
|-2--2S=9--9---9S10-|-10--10S12-12--12--|


  F#5   A5      B5            D5
  E E E E E E E  E    E  E  E  E  E  E  E  E
|------------------|--------------------------|
|------------------|--------------------------|
|-6-6-6S9-9-9-9S11-|-11-11-11S14-14-14-14-14--|
|-4-4-4S7-7-7-7S=9-|--9--9--9S12-12-12-12-12--|
|------------------|--------------------------|
|------------------|--------------------------|


   Chorus
    F#5  C#5       D5          E5
    Gtrs I, II
    Q  E  E  Q   E  E    Q   E  E  Q   Q
||--------------------|-------------------|
||o-------------------|-------------------|
||--------------------|-------------------|
||--------------------|-------------------|
||o-4--4S11-11--11S12-|-12--12S14-14--14--|
||--2--2S=9--9---9S10-|-10--10S12-12--12--|


  F#5   A5      B5            D5
  E E E E E E E  E    E  E  E  E  E  E  E  E
|------------------|-------------------------|
|------------------|-------------------------|
|-6-6-6S9-9-9-9S11-|-11-11-11S14-14-14-14-14-|
|-4-4-4S7-7-7-7S=9-|--9--9--9S12-12-12-12-12-|
|------------------|-------------------------|
|------------------|-------------------------|


  F#5     C#5         F#5         E5
  Gtr I
   Q    E Q  Q   E     +E  E E  E E E E E
|-------------------|------9-7------7-----|
|------10-9---------|----------10-9---9---|
|-11---------9--11--|-(11)--------------9-|
|-------------------|---------------------|
|-------------------|---------------------|
|-------------------|---------------------|
|
| Gtr II
|  Q.     H     +E      H         H
|-------------------|---------------------|
|-------------------|---------------------|
|-------------------|---------------------|
|---------6-----(6)-|-------------9-------|
|--4------4-----(4)-|---4---------7-------|
|--2----------------|---2-----------------|


  D5       E5            B5          C#5
   E  E  E Q   E E  E     +E  E  E Q     E Q
|----------------------|------------------------||
|-----9-10-9-----------|------9-10-9-----------o||
|-11----------11-9-11--|-(11)-----------11-9----||
|----------------------|------------------------||
|----------------------|-----------------------o||
|----------------------|------------------------||
|
|  Q.      H       +E      H          H
|----------------------|------------------------||
|----------------------|-----------------------o||
|----------------------|------------------------||
|--7-------9-------(9)-|------------------------||
|--5-------7-------(7)-|---9---------11--------o||
|----------------------|---7----------9---------||


 Intro
  F#5                   G5  F#5                 A5G5
  E E S S S S S S S S E E   E E S S S S S S S S E E
|-------------------------|-------------------------|
|-------------------------|-------------------------|
|-------------------------|-------------------------|
|-4-------------------4-5-|-4-------------------7-5-|
|-4-------------------4-5-|-4-------------------7-5-|
|-2---2-2-2-2---2-2---2-3-|-2---2-2-2-2---2-2---5-3-|
|
| E E S S S S S S S S E E   E E S S S S S S S S E E
|-------------------------|-------------------------|
|-------------------------|-------------------------|
|-------------------------|-------------------------|
|-4-------------------4-5-|-4-------------------7-5-|
|-4-------------------4-5-|-4-------------------7-5-|
|-2---2-2-2-2---2-2---2-3-|-2---2-2-2-2---2-2---5-3-|


  F#5                   G5  F#5
  E E S S S S S S S S E E   E E S S S S S S S S S S S S
|-------------------------|------------------------------|
|-------------------------|------------------------------|
|-------------------------|------------------------------|
|-4-------------------4-5-|-4----------------------------|
|-4-------------------4-5-|-4----------------------------|
|-2---2-2-2-2---2-2---2-3-|-2---2-2-2-2-2-2-2-2-2-2-2-2--|
|
| E E S S S S S S S S E E   E E S S S S S S S S S S S S
|-------------------------|------------------------------|
|-------------------------|------------------------------|
|-------------------------|------------------------------|
|-4-------------------4-5-|-4----------------------------|
|-4-------------------4-5-|-4----------------------------|
|-2---2-2-2-2---2-2---2-3-|-2---2-2-2-2-0-0-0-0-0-0-0-0--|


  F#5                   G5  F#5                 A5G5
  E E S S S S S S S S E E   E E S S S S S S S S E E
|-------------------------|-------------------------|
|-------------------------|-------------------------|
|-------------------------|-------------------------|
|-4-------------------4-5-|-4-------------------7-5-|
|-4-------------------4-5-|-4-------------------7-5-|
|-2---2-2-2-2---2-2---2-3-|-2---2-2-2-2---2-2---5-3-|
|
| E E S S S S S S S S E E   E E S S S S S S S S E E
|-------------------------|-------------------------|
|-------------------------|-------------------------|
|-------------------------|-------------------------|
|-4-------------------4-5-|-4-------------------7-5-|
|-4-------------------4-5-|-4-------------------7-5-|
|-2---2-2-2-2---2-2---2-3-|-2---2-2-2-2---2-2---5-3-|


                                D.S. al Coda
  F#5                   G5  F#5
                                         ~~~
  E E S S S S S S S S E E   E E S S S S  H
|-------------------------|---------------------|
|-------------------------|---------------------|
|-------------------------|---------------------|
|-4-------------------4-5-|-4-----------[4]-----|
|-4-------------------4-5-|-4-------------------|
|-2---2-2-2-2---2-2---2-3-|-2---2-2-2-2---------|
|
|                                        ~~~
| E E S S S S S S S S E E   E E S S S S  H
|-------------------------|---------------------|
|-------------------------|---------------------|
|-------------------------|-------------[2]-----|
|-4-------------------4-5-|-4-------------------|
|-4-------------------4-5-|-4-------------------|
|-2---2-2-2-2---2-2---2-3-|-2---2-2-2-2---------|


 Guitar Break
  &
  F#5                                 F#5                  E5     E5
  Gtr I
  PM----------------------------------------------------------------------
  S S S   S S S S S S S S S S S S S   S S S S S  S S S S S S  S S S  S S
|-----------------------------------|------------------------------------|
|-----------------------------------|------------------------------------|
|-----------------------------------|------------------------------------|
|-----------------------------------|------------------------------------|
|-------------------7-5-4---4-------|------------------7-5-4----4--------|
|-2-2-2---2-5-3-2-5-------7---7-5-4-|-2-2-2-2-5--3-2-5--------7---7--5-4-|
|
| Gtr II
| E   H..                             Q       Q.           E.     E.
|-----------------------------------|------------------------------------|
|-----------------------------------|------------------------------------|
|-----------------------------------|------------------------------------|
|-----------------------------------|------------------------------------|
|-4---------------------------------|-4--------------------2------2------|
|-2---------------------------------|-2--------------------0------0------|


  F#5                               F#5             E5    F#5
 -------------------------------------------------|
  S S S S S S S S S S S S S S S S   S S S S S S S S E E S E.
|---------------------------------|---------------------------|
|---------------------------------|---------------------------|
|---------------------------------|---------------------------|
|---------------------------------|---------------------------|
|-----------------7-5-4---4-------|-----------------2-2-2-4---|
|-2-2-2-2-5-3-2-5-------7---7-5-4-|-2-2-2-2-5-3-2-5-0-0-0-2---|
|
| W                                 Q       Q       E E S E.
|---------------------------------|---------------------------|
|---------------------------------|---------------------------|
|---------------------------------|---------------------------|
|---------------------------------|---------------------------|
|-4-------------------------------|-4---------------2-2-2-4---|
|-2-------------------------------|-2---------------0-0-0-2---|


  (F#5)
  Gtrs I, II
  PM-----------------------------------------------------------------
  S S S S S S S S S S S S S S S S   S S S S S S S S S S S S S S S S
|---------------------------------|---------------------------------|
|---------------------------------|---------------------------------|
|---------------------------------|---------------------------------|
|---------------------------------|---------------------------------|
|-----------------7-5-4---4-------|-----------------7-5-4---4-------|
|-2-2-2-2-5-3-2-5-------7---7-5-4-|-2-2-2-2-5-3-2-5-------7---7-5-4-|


                                                    E5    F#5
 -------------------------------------------------|
  S S S S S S S S S S S S S S S S   S S S S S S S S E E S E.
|---------------------------------|---------------------------|
|---------------------------------|---------------------------|
|---------------------------------|---------------------------|
|---------------------------------|---------------------------|
|-----------------7-5-4---4-------|-----------------2-2-2-4---|
|-2-2-2-2-5-3-2-5-------7---7-5-4-|-2-2-2-2-5-3-2-5-0-0-0-2---|


  (F#5)
  PM-----------------------------------------------------------------
  S S S S S S S S S S S S S S S S   S S S S S S S S S S S S S S S S
|---------------------------------|---------------------------------|
|---------------------------------|---------------------------------|
|---------------------------------|---------------------------------|
|---------------------------------|---------------------------------|
|-----------------7-5-4---4-------|-----------------7-5-4---4-------|
|-2-2-2-2-5-3-2-5-------7---7-5-4-|-2-2-2-2-5-3-2-5-------7---7-5-4-|


                                                    E5    F#5
 -------------------------------------------------|
  S S S S S S S S S S S S S S S S   S S S S S S S S E E S E.
|---------------------------------|---------------------------||
|---------------------------------|---------------------------||
|---------------------------------|---------------------------||
|---------------------------------|---------------------------||
|-----------------7-5-4---4-------|-----------------2-2-2-4---||
|-2-2-2-2-5-3-2-5-------7---7-5-4-|-2-2-2-2-5-3-2-5-0-0-0-2---||


 Guitar Solo
  E5              F#5
  Gtr I
   |--3---|  |---3---|  |---3----|  |--3--|  |--3--|  |--3--|  |--3--|  |--3--|
   S   S  S  S  S    S  S  S     S  S  S  S  S  S  S  S  S  S  S  S  S  S  S  S
|-17--17-17-17-17---17-19-19----19-19-19-19-21-21-21-21-21-21-22-22-22-22-22-22-|
|-------------------------------------------------------------------------------|
|-------------------------------------------------------------------------------|
|-------------------------------------------------------------------------------|
|-------------------------------------------------------------------------------|
|-------------------------------------------------------------------------------|
|
| Gtr II
|  E.             E          E.              H
|-------------------------------------------------------------------------------|
|-------------------------------------------------------------------------------|
|-------------------------------------------------------------------------------|
|-------------------------------------------------------------------------------|
|--2--------------4-------------------------------------------------------------|
|--0--------------2-------------------------------------------------------------|


   |--3---|  |--3--|  |------3------|      |------3------|      |------3------|      
   S   S  S  S  S  S  S      S      S      S      S      S      S      S      S      
|-24--24-24-24-24-24-24pb25-24pb25-24pb25-24pb25-24pb25-24pb25-24pb26-24pb26-24pb26-|
|-----------------------------------------------------------------------------------|
|-----------------------------------------------------------------------------------|
|-----------------------------------------------------------------------------------|
|-----------------------------------------------------------------------------------|
|-----------------------------------------------------------------------------------|
|                                                                                   |
|  H.                                                                               |
|-----------------------------------------------------------------------------------|
|-----------------------------------------------------------------------------------|
|-----------------------------------------------------------------------------------|
|-----------------------------------------------------------------------------------|
|-----------------------------------------------------------------------------------|
|-----------------------------------------------------------------------------------|

  |------3------|      |------3------|      |------3------|         
  S      S      S      S      S      S      S      S      S         
|24pb26-24pb26-24pb26-24pb26-24pb26-24pb26-24pb26-24pb26-24pb26----|
|------------------------------------------------------------------|
|------------------------------------------------------------------|
|------------------------------------------------------------------|
|------------------------------------------------------------------|
|------------------------------------------------------------------|
|                                                                   
|                      E                    E                       
|------------------------------------------------------------------|
|------------------------------------------------------------------|
|------------------------------------------------------------------|
|------------------------------------------------------------------|
|----------------------x--------------------x----------------------|
|----------------------x--------------------x----------------------|

  E5    F#5                               F#5                                   E5
   H          +H        H        +H        E       S  S  S  S  E     S  S  S  S  S  S  S     S
|-20b24------(20)----|-22b24----(22)----|------------14----------------14----------------------|
|--------------------|------------------|---------14----17-14-------14----17-14-15-14-------14-|
|--------------------|------------------|-16b18---------------16b18-------------------16b18----|
|--------------------|------------------|------------------------------------------------------|
|--------------------|------------------|------------------------------------------------------|
|--------------------|------------------|------------------------------------------------------|
|
|  E.   E E.   H        W                  S    S  S  S  E     E     S  S  S  S  S  S  S     S
|--------------------|------------------|------------------------------------------------------|
|--------------------|------------------|------------------------------------------------------|
|--------------------|------------------|------------------------------------------------------|
|--------------------|------------------|----------------4-------------------------------------|
|--2----4------------|------------------|----------------4-------------------------------------|
|--0----2------------|------------------|--2----2--2--2--2-----------2--2--2--2--0--0--0-----0-|


  F#5
   S  S  S  S  S  S  E  S  S  S  S  S  S  S  S
|------------------------------------------------|
|------------------------------------------------|
|-17-16-14----16----14---------------------------|
|----------16----16----16----14-14----------14---|
|-------------------------16-------14-15-16------|
|------------------------------------------------|
|
|  S  S  S  S  E     E  H
|------------------------------------------------|
|------------------------------------------------|
|------------------------------------------------|
|--------------4---------------------------------|
|--------------4---------------------------------|
|--2--2--2--2--2---------------------------------|


                                      E5
   S  S  S  S  S  S  S  S  S  S  S  S  S  S  S  S
|-------------------------------------------------|
|-------------------------17-14-------16-14-------|
|-------------------------------17-16-------17-16-|
|----------14-------------------------------------|
|-14-15-16-------12----14-------------------------|
|-------------14----14----------------------------|
|
|  S  S  S  S  E     E     S  S  S  S  S  S  S  S
|-------------------------------------------------|
|-------------------------------------------------|
|-------------------------------------------------|
|--------------4----------------------------------|
|--------------4----------------------------------|
|--2--2--2--2--2-----------2--2--2--2--0--0--0--0-|


  F#5                       G5       F#5     E5      A#5
                                                      ~~~~~
   E       S  S  E     S  S  S  S       S       S     Q
|-17b19---19-14-19b21-19-17----22b24---22b24---22b24-22b24---|
|---------------------------15-------------------------------|
|------------------------------------------------------------|
|------------------------------------------------------------|
|------------------------------------------------------------|
|------------------------------------------------------------|
|
|                            |-------3-------|
|  S    S  S  S  E     E     E       E       E        Q
|------------------------------------------------------------|
|------------------------------------------------------------|
|-----------------------------------------------------3------|
|----------------4------------------------------------3------|
|----------------4-----------5-------4-------2--------1------|
|--2----2--2--2--2-----------3-------2-------0---------------|


  F#5                                                           E5
   |---3---|  |---3---|  |--3--|  |--3--|  |---3---|  |---3---|  |-----3------|
   S  S    S  S  S    S  S  S  S  S  S  S  S  S    S  S  S    S  S  S    E    E
|-19------------17----------------------------------------------------------------|
|----19--------------19-----------------------------------------------------------|
|---------22-18---------22-18-----------------------------------------------------|
|-----------------------------22-18-------18-16---------16---14-------------------|
|-----------------------------------19-17---------19-16---------16-14---14---14---|
|---------------------------------------------------------------------------------|
|
|  S    S     S    S     E        E        S    S     S    S     S    S    S    S
|---------------------------------------------------------------------------------|
|---------------------------------------------------------------------------------|
|---------------------------------------------------------------------------------|
|------------------------4--------------------------------------------------------|
|------------------------4--------------------------------------------------------|
|--2----2-----2----2-----2-----------------2----2-----2----2-----0----0----0----0-|


  F#5
               |-3-|  |--3--|  |----3----|
   S  S  S  S  E.  E  E.    E  E.  +Q   +S
|--------------------------------------------|
|-------------14-----14-------14--(14)-(14)--|
|-------------14-----14-------14--(14)-(14)--|
|--------------------------------------------|
|-16-16-16-16-----16-------16----------------|
|--------------------------------------------|
|
|  S  S  S  S  E   E     H
|--------------------------------------------|
|--------------------------------------------|
|--------------------------------------------|
|--------------4-----------------------------|
|--------------4-----------------------------|
|--2--2--2--2--2-----------------------------|


  F#5                     E5
  S S S S S S S S S S S S  S  S S S   S S  S  S  S S  S S S S  S S  S S  S  S
|-3S5-0-0-5S7-0-0-7S9-0-0-10S12-0-0-|-7-9--7----------------------------------||
|-----------------------------------|--------10--8-7--------------------------||
|-----------------------------------|-----------------9-7-6-------------------||
|-----------------------------------|-----------------------9--7-6------------||
|-----------------------------------|-------------------------------9-7--5----||
|-----------------------------------|-----------------------------------------||
|
| S S S S E   E   S S S S  S  S S S   E    S  E.      E   E    E    E    E
|-----------------------------------|------------------------------14---12\---||
|-----------------------------------|-----10-10------10-------10--------------||
|-----------------------------------|---------------------9-------------------||
|---------4-------------------------|-7---------------------------------------||
|---------4-------------------------|-----------------------------------------||
|-2-2-2-2-2-------2-2-2-2--0--0-0-0-|-----------------------------------------||


  C#5
  S S  S  S S  S  S S  S  S S  S  S S  S  S
|-------------------------------------------|
|-------------------------------------------|
|-------------------------------------------|
|-------------------------------------------|
|-----------9-------9-11----9-11-12-9-11-12-|
|---9-11-12---11-12------12-----------------|
|
| W
|-------------------------------------------|
|-------------------------------------------|
|-------------------------------------------|
|-6-----------------------------------------|
|-4-----------------------------------------|
|-------------------------------------------|


  D5
  S  S  S S  S  S S  S  S S  S  S S  S  S S
|-------------------------------------------|
|-------------------------------------------|
|---------------------------------9-11----9-|
|-9-------9-11----9-11-12-9-11-12------12---|
|---11-12------12---------------------------|
|-------------------------------------------|
|
| W
|-------------------------------------------|
|-------------------------------------------|
|-------------------------------------------|
|-7-----------------------------------------|
|-5-----------------------------------------|
|-------------------------------------------|


  C#5
   S  S  S  S  S  S  S  S  S  S  S  S  S  S  S  S
|----------------------------------------14-16-19-|
|----------12-14----12-14-15-12-14-15-17----------|
|-11-13-14-------14-------------------------------|
|-------------------------------------------------|
|-------------------------------------------------|
|-------------------------------------------------|
|
|  W
|-------------------------------------------------|
|-------------------------------------------------|
|-------------------------------------------------|
|--6----------------------------------------------|
|--4----------------------------------------------|
|-------------------------------------------------|


  D5
   |--3--|  |--3--|  |--3--|  |--3--|
   S  S  S  S  S  S  S  S  S  S  S  S  S  Q        +E.
|-16p12----------16S21p16----------16-22-24b24.5r=(24)-|
|-------12----12----------17----17---------------------|
|----------13----------------16------------------------|
|------------------------------------------------------|
|------------------------------------------------------|
|------------------------------------------------------|
|
|  W
|------------------------------------------------------|
|------------------------------------------------------|
|------------------------------------------------------|
|--7---------------------------------------------------|
|--5---------------------------------------------------|
|------------------------------------------------------|


  C#5
   ~~~
   Q.           E    S  S  S  S  S  S  S  S
|-24----------------19-21-22-19-21----19----|
|----------------------------------22----21-|
|-------------------------------------------|
|-------------------------------------------|
|-------------------------------------------|
|-------------------------------------------|
|
|  S  S S S S S S S  S  S  S  S  S  S  S  S
|-------------------------------------------|
|-------------------------------------------|
|-------------------------------------------|
|-------------------------------------------|
|--4--4-4-4-4-4-4-4--4--4--4--4--4--4--4--4-|
|-------------------------------------------|


  D5                E5                F#5
   S  S  S  S  S  S  S  S  S  S  S  S  S  S  S  S
|-------------19-21-22-19-21----19----------------|
|-22-19-21-22----------------22----21-22-19-21-22-|
|-------------------------------------------------|
|-------------------------------------------------|
|-------------------------------------------------|
|-------------------------------------------------|
|
|  S  S  S  S  S  S  S  S  S  S  S  S  S  S  S  S
|-------------------------------------------------|
|-------------------------------------------------|
|-------------------------------------------------|
|-------------------------------------------------|
|--5--5--5--5--5--5--7--7--7--7--7--7--9--9--9--9-|
|-------------------------------------------------|


  E5
   S  S  S  S  S  S  S  S  S  S  S  S  S  S  S  S
|-19-21-22-21-19-17-21-19-17----19-17-------------|
|----------------------------21-------21-19-17----|
|----------------------------------------------19-|
|-------------------------------------------------|
|-------------------------------------------------|
|-------------------------------------------------|
|
|  S  S  S  S  S  S  S  S  S  S  S  S  S  S  S  S
|-------------------------------------------------|
|-------------------------------------------------|
|-------------------------------------------------|
|-------------------------------------------------|
|--7--7--7--7--7--7--7--7--7--7--7--7--7--7--7--7-|
|-------------------------------------------------|


                                        ~~
               |---3---|  |---3---|
   S  S  S  S  S  S    S  S  S    S  S  Q        +E.
|------------------------14h17---21-22S24-------(24)------|
|---------------------14----------------------------------|
|-18-16----------14---------------------------------------|
|-------19-18-16------------------------------------------|
|---------------------------------------------------------|
|---------------------------------------------------------|
|
|  S  S  S  S  S    S     S    S     S  S S S S   S  S S
|---------------------------------------------------------|
|---------------------------------------------------------|
|---------------------------------------------------------|
|---------------------------------------------------------|
|--7--7--7--7--7----7-----7----7-----7--7-7-7-7---7--7-7--|
|---------------------------------------------------------|


 Chorus
  F#5        C#5         D5          E5
   ~~~~~~~~~~~~~~~~~~
   H             +H            Q   E  E  Q   Q
|-24b26.5-------(24)--------|-------------------|
|---------------------------|-------------------|
|---------------------------|-------------------|
|---------------------------|-------------------|
|---------------------------|-12--12S14-14--14--|
|---------------------------|-10--10S12-12--12--|
|
|  Q       E  E   Q    E  E    Q   E  E  Q   Q
|---------------------------|-------------------|
|---------------------------|-------------------|
|---------------------------|-------------------|
|---------------------------|-------------------|
|--4-------4S11--11---11S12-|-12--12S14-14--14--|
|--2-------2S=9---9----9S10-|-10--10S12-12--12--|


  F#5   A5      B5            D5
  E E E E E E E  E    E  E  E  E  E  E  E  E
|------------------|--------------------------|
|------------------|--------------------------|
|-6-6-6S9-9-9-9S11-|-11-11-11S14-14-14-14-14--|
|-4-4-4S7-7-7-7S=9-|--9--9--9S12-12-12-12-12--|
|------------------|--------------------------|
|------------------|--------------------------|
|
| E E E E E E E  E    E  E  E  E  E  E  E  E
|------------------|--------------------------|
|------------------|--------------------------|
|-6-6-6S9-9-9-9S11-|-11-11-11S14-14-14-14-14--|
|-4-4-4S7-7-7-7S=9-|--9--9--9S12-12-12-12-12--|
|------------------|--------------------------|
|------------------|--------------------------|


  F#5     C#5         F#5          E5
   Q    E Q  Q   E     +E   E E  E E E E  E
|-------9-7---------|-------9-7------7------|
|-10---10-9--9--10--|-(10)-10-9-10-9-9-9----|
|-11---------9--11--|-(11)------11-9---9--9-|
|-------------------|--------------------11-|
|-------------------|-----------------------|
|-------------------|-----------------------|
|
|  Q.     H     +E      H          H
|-------------------|-----------------------|
|-------------------|-----------------------|
|-------------------|-----------------------|
|---------6-----(6)-|--------------9--------|
|--4------4-----(4)-|---4----------7--------|
|--2----------------|---2-------------------|


  D5       E5            B5          C#5
   E  E  E Q   E E  E     +E  E  E Q     E Q
|-----7--9-7-----------|------7--9-7-----------|
|-10--9-10-9--10-9-10--|-(10)-9-10-9----10-9---|
|-11----------11-9-11--|-(11)-----------11-9---|
|----------------------|-----------------------|
|----------------------|-----------------------|
|----------------------|-----------------------|
|
|  Q.      H       +E      H          H
|----------------------|-----------------------|
|----------------------|-----------------------|
|----------------------|-----------------------|
|--7-------9-------(9)-|-----------------------|
|--5-------7-------(7)-|---9---------11--------|
|----------------------|---7----------9--------|


  F#5  C#5       D5          E5
  Q  E  E  Q   E  E    Q   E  E  Q   Q
|-------------------|-------------------|
|-------------------|-------------------|
|-------------------|-------------------|
|-------------------|-------------------|
|-4--4S11-11--11S12-|-12--12S14-14--14--|
|-2--2S=9--9---9S10-|-10--10S12-12--12--|
|
| Q  E  E  Q   E  E    Q   E  E  Q   Q
|-------------------|-------------------|
|-------------------|-------------------|
|-------------------|-------------------|
|-------------------|-------------------|
|-4--4S11-11--11S12-|-12--12S14-14--14--|
|-2--2S=9--9---9S10-|-10--10S12-12--12--|


  F#5   A5      B5            D5
  E E E E E E E  E    E  E  E  E  E  E  E  E
|------------------|--------------------------|
|------------------|--------------------------|
|-6-6-6S9-9-9-9S11-|-11-11-11S14-14-14-14-14--|
|-4-4-4S7-7-7-7S=9-|--9--9--9S12-12-12-12-12--|
|------------------|--------------------------|
|------------------|--------------------------|
|
| E E E E E E E  E    E  E  E  E  E  E  E  E
|------------------|--------------------------|
|------------------|--------------------------|
|-6-6-6S9-9-9-9S11-|-11-11-11S14-14-14-14-14--|
|-4-4-4S7-7-7-7S=9-|--9--9--9S12-12-12-12-12--|
|------------------|--------------------------|
|------------------|--------------------------|


  F#5     C#5         F#5          E5
   Q    E Q  Q   E     +E   E E  E E E E  E
|-------9-7---------|-------9-7------7------|
|-10---10-9--9--10--|-(10)-10-9-10-9-9-9----|
|-11---------9--11--|-(11)------11-9---9--9-|
|-------------------|--------------------11-|
|-------------------|-----------------------|
|-------------------|-----------------------|
|
|  Q.     H     +E      H          H
|-------------------|-----------------------|
|-------------------|-----------------------|
|-------------------|-----------------------|
|---------6-----(6)-|--------------9--------|
|--4------4-----(4)-|---4----------7--------|
|--2----------------|---2-------------------|


  D5       E5            B5          C#5
   E  E  E Q   E E  E     +E  E  E Q     E Q
|-----7--9-7-----------|------7--9-7-----------|
|-10--9-10-9--10-9-10--|-(10)-9-10-9----10-9---|
|-11----------11-9-11--|-(11)-----------11-9---|
|----------------------|-----------------------|
|----------------------|-----------------------|
|----------------------|-----------------------|
|
|  Q.      H       +E      H          H
|----------------------|-----------------------|
|----------------------|-----------------------|
|----------------------|-----------------------|
|--7-------9-------(9)-|-----------------------|
|--5-------7-------(7)-|---9---------11--------|
|----------------------|---7----------9--------|


  F#5
  Gtrs I, II
  \1_________________________/
  W            +W           +W           +W
|------------|------------|------------|--------|
|------------|------------|------------|--------|
|------------|------------|------------|--------|
|------------|------------|------------|--------|
|-4----------|-(4)--------|-(4)--------|-(4)----|
|-2----------|-(2)--------|-(2)--------|-(2)----|


   Keyboard Solo
    F#5                   G5  F#5                 A5G5
    E E S S S S S S S S E E   E E S S S S S S S S E E
||--------------------------|-------------------------|
||o-------------------------|-------------------------|
||--------------------------|-------------------------|
||--4-------------------4-5-|-4-------------------7-5-|
||o-4-------------------4-5-|-4-------------------7-5-|
||--2---2-2-2-2---2-2---2-3-|-2---2-2-2-2---2-2---5-3-|


  F#5                   G5  F#5         E5
  E E S S S S S S S S E E   E E S S S S S S S S S S S S
|-------------------------|------------------------------||
|-------------------------|-----------------------------o||
|-------------------------|------------------------------||
|-4-------------------4-5-|-4----------------------------||
|-4-------------------4-5-|-4---------------------------o||
|-2---2-2-2-2---2-2---2-3-|-2---2-2-2-2-0-0-0-0-0-0-0-0--||


  A5                    A#5 A5                  C5 A#5
  E E S S S S S S S S E E   E E S S S S S S S S  E E
|-------------------------|--------------------------|
|-------------------------|--------------------------|
|-------------------------|--------------------------|
|-7-------------------7-8-|-7-------------------10-8-|
|-5-------------------7-8-|-5-------------------10-8-|
|-5---5-5-5-5---5-5---5-6-|-5---5-5-5-5---5-5----8-6-|


  A5                    A#5 A5          G5
  E E S S S S S S S S E E   E E S S S S S S S S S S S S
|-------------------------|------------------------------|
|-------------------------|------------------------------|
|-------------------------|------------------------------|
|-7-------------------7-8-|-7----------------------------|
|-5-------------------7-8-|-5----------------------------|
|-5---5-5-5-5---5-5---5-6-|-5---5-5-5-5-3-3-3-3-3-3-3-3--|


  F#5                   G5  F#5                 A5G5
  E E S S S S S S S S E E   E E S S S S S S S S E E
|-------------------------|-------------------------|
|-------------------------|-------------------------|
|-------------------------|-------------------------|
|-4-------------------4-5-|-4-------------------7-5-|
|-4-------------------4-5-|-4-------------------7-5-|
|-2---2-2-2-2---2-2---2-3-|-2---2-2-2-2---2-2---5-3-|


  F#5                 G5F#5 E5
  E E S S S S S S S S E E   W
|-------------------------|------|
|-------------------------|------|
|-------------------------|------|
|-4-------------------5-4-|-2----|
|-4-------------------5-4-|-2----|
|-2---2-2-2-2---2-2---3-2-|-0----|


 Outro
  N.C.
  PM-----------------------------------------------------------------
  S S S S S S S S S S S S S S S S   S S S S S S S S S S S S S S S S
|---------------------------------|---------------------------------|
|---------------------------------|---------------------------------|
|---------------------7-7-5-5-----|---------------------7-7-5-5-----|
|-7-7-7-7-7-7-5-5-7-7---------5-5-|-7-7-7-7-7-7-5-5-7-7---------5-5-|
|---------------------------------|---------------------------------|
|---------------------------------|---------------------------------|


 -----------------------------------------------------------------|
  S S S S S S S S S S S S S S S S   S S S S S S S S S S S S S S S S
|---------------------------------|------------------------------------|
|---------------------------------|------------------------------------|
|---------------------7-7-5-5-----|---------------------7-7-5-5--------|
|-7-7-7-7-7-7-5-5-7-7---------5-5-|-7-7-7-7-7-7-5-5-7-7---------5-5----|
|---------------------------------|------------------------------------|
|---------------------------------|------------------------------------|


  PM---------------------------------------------------------------------
  S S S S S S S S S S  S  S S S S S   S S S S S S S S S S  S  S S S S S
|-----------------------------------|-----------------------------------|
|---------------------10-10-8-8-----|---------------------10-10-8-8-----|
|-9-9-9-9-9-9-7-7-9-9-----------7-7-|-9-9-9-9-9-9-7-7-9-9-----------7-7-|
|-----------------------------------|-----------------------------------|
|-----------------------------------|-----------------------------------|
|-----------------------------------|-----------------------------------|


 ---------------------------------------------------------------------|
  S S S S S S S S S S  S  S S S S S   S S S S S S S S S S  S  S S S S S
|-----------------------------------|--------------------------------------|
|---------------------10-10-8-8-----|---------------------10-10-8-8--------|
|-9-9-9-9-9-9-7-7-9-9-----------7-7-|-9-9-9-9-9-9-7-7-9-9-----------7-7----|
|-----------------------------------|--------------------------------------|
|-----------------------------------|--------------------------------------|
|-----------------------------------|--------------------------------------|


  A5 G5 F5 E5     G5 F5 G5 E5
  E. E. Q  Q.     E. Q  Q  E. +E    +W           +W
|---------------|-----------------|------------|--------*|
|---------------|-----------------|------------|--------*|
|-9--7--5--4----|-2---------------|------------|--------*|
|-7--5--3--2----|-0--5------------|------------|--------*|
|---------------|----3--5--2--(2)-|-(2)--------|-(2)----*|
|---------------|-------3--0--(0)-|-(0)--------|-(0)----*|


Duration Legend
---------------
W - whole; H - half; Q - quarter; E - 8th; S - 16th; T - 32nd; X - 64th; a - acciaccatura
+ - note tied to previous; . - note dotted; .. - note double dotted
Uncapitalized letters represent notes that are staccato (1/2 duration)
Irregular groupings are notated above the duration line
Duration letters will always appear directly above the note/fret number it represents the
duration for.  Duration letters with no fret number below them represent rests.  Multi-
bar rests are notated in the form Wxn, where n is the number of bars to rest for.  Low
melody durations appear below the staff

Tablature Legend
----------------
 h   - hammer-on
 p   - pull-off
 b   - bend
 pb  - pre-bend
 r   - bend release (if no number after the r, then release immediately)
 /\  - slide into or out of (from/to "nowhere")
 s   - legato slide
 S   - shift slide
  - natural harmonic
[n]  - artificial harmonic
n(n) - tapped harmonic
 ~   - vibrato
 tr  - trill
 T   - tap
 TP  - trem. picking
 PM  - palm muting
\n/  - tremolo bar dip; n = amount to dip
 \n  - tremolo bar down
 n/  - tremolo bar up
/n\  - tremolo bar inverted dip
 =   - hold bend; also acts as connecting device for hammers/pulls
 <>  - volume swell (louder/softer)
 x   - on rhythm slash represents muted slash
 o   - on rhythm slash represents single note slash

Misc Legend
-----------
 |  - bar
||  - double bar
||o - repeat start
o|| - repeat end
*|  - double bar (ending)
 :  - bar (freetime)
 $  - Segno
 &  - Coda
Tempo markers -  = BPM(8/16=s8/s16), where s8 = swing 8ths, s16 = swing 16ths





Comments


Popular Children Of Bodom tabs & chords
Needled 24 7 3 Bass Tabs
Bastards Of Bodom 3 Tabs
Better Off DeadIntro Tabs
Everytime I Die 1 Tabs
Four Seasons - Summer 3 Tabs
If You Want Peace Prepare For War 1 Tabs
Red Light In My Eyes Part 1 Tabs
She Is Beautiful Intro Tabs
Touch Like An Angel Of Death Intro Tabs
Transference 2 Tabs


Song lyrics



↑ Back to top | Tablatures and chords are parodies/interpretations of the original songs. You may use it for private study, scholarship, research or language learning purposes only
© 2014 AZChords.com Contact us | Privacy policy | DMCA | Add/correct tabs | Request tabs | Top 50 tabs