» » »

Children Of Bodom, Bodom Beach Terror Tabs (ver.3)

Artists:  A B C D E F G H I J K L M N O P Q R S T U V W X Y Z # 

Bodom Beach Terror Tabs (ver.3)

Children Of Bodom Tabs
Rating:
0/5 (0 votes)
Bodom Beach Terror lessons Tabs too difficult? Try these video lessons and learn fast
                Heres what I got so far, hope you like it. Corrected with the Reap "N" Roll
section in Young Guitar (Awesome DVD)

D||----------------------------|---------------------------|
A||----------------------------|---------------------------|
F||*------------------------0--|---------------------------|
C||*--4------------------4--0--|--4------------------7--7--|
G||---4------------------4-----|--4------------------5--7--|
D||---2----2-2-2-2--2-2--------|--2----2-2-2-2--2-2--------|


                                                           
---------------------------|-----------------------------||
---------------------------|-----------------------------||
------------------------0--|----------------------------*||
--4------------------4--0--|--4-------------------------*||
--4------------------4-----|--4--------------------------||
--2----2-2-2-2--2-2--------|--2----2-2-2-2-2-0--0--0--0--||


                                                                     
-----------------------------------|--------------------------------|
-----------------------------------|--------------------------------|
-----------------------------------|--------------------------------|
-----------------------------------|--------------------------------|
--5h7-------------5h7-----10h7-----|--5h7---------------------6--3--|
------0-0-0-0-0-0-----0-0------0-0-|------0-0-0-0-0-0-1-0-0-0-4--1--|


                                    
-----------------------------------|
-----------------------------------|
-----------------------------------|
-----------------------------------|
--5h7-------------5h7-----10h7-----|
------0-0-0-0-0-0-----0-0------0-0-|


                                               
----------------------------------------------|
----------------------------------------------|
---------------------------------------8h9h11-|
--------------------------------8h9h11--------|
--5h7--------------------7h9h11---------------|
------0-0-0-0-0-0-7h9h11----------------------|


                                                                     
-----------------------------------|--------------------------------|
-----------------------------------|--------------------------------|
-----------------------------------|--------------------------------|
-----------------------------------|--------------------------------|
--5h7-------------5h7-----10h7-----|--5h7---------------------6--3--|
------0-0-0-0-0-0-----0-0------0-0-|------0-0-0-0-0-0-1-0-0-0-4--1--|


                                                                   
-----------------------------------|------------------------------|
-----------------------------------|------------------------------|
-----------------------------------|------------------------------|
-----------------------------------|------------------5-----7-----|
--5h7-------------5h7-----10h7-----|--5-7-------------3--5--5--7--|
------0-0-0-0-0-0-----0-0------0-0-|------0-0-0-0-0-0----3-----5--|


                                                                     
-----------------------------------|--------------------------------|
-----------------------------------|--------------------------------|
-----------------------------------|--------------------------------|
-----------------------------------|--------------------------------|
--5h7-------------5h7-----10h7-----|--5h7---------------------6--3--|
------0-0-0-0-0-0-----0-0------0-0-|------0-0-0-0-0-0-1-0-0-0-4--1--|


                                                                       
-----------------------------------|----------------------------------|
-----------------------------------|----------------------------------|
-----------------------------------|----------------------------------|
-----------------------------------|----------------------------------|
--5h7-------------5h7-----10h7-----|--5-7-----------------------------|
------0-0-0-0-0-0-----0-0------0-0-|------0-0-0-0-0-0-0-2-0-2-0-2-0-2-|


                                                        
-------------------------------|-----------------------|
-------------------------------|-----------------------|
-------------------------------|-----------------------|
-------------------------------|-----------------------|
-------------------------------|-----------------------|
--0-2-2-2-2----2-2-2-2-0-0-0-0-|--0-2-2-2-2------------|


                                                              
-------------------------------|-----------------------------|
-------------------------------|-----------------------------|
-------------------------------|-----------------------------|
-------------------------------|---------------5--4-----3----|
-------------------------------|---------------5--4-----1----|
--0-2-2-2-2----2-2-2-2-0-0-0-0-|--0-2-2-2-2----3--2--0-------|


                                                        
-------------------------------|-----------------------|
-------------------------------|-----------------------|
-------------------------------|-----------------------|
-------------------------------|-----------------------|
-------------------------------|-----------------------|
--0-2-2-2-2----2-2-2-2-0-0-0-0-|--0-2-2-2-2------------|


                                                           
-------------------------------|--------------------------|
-------------------------------|--------------------------|
-------------------------------|----------5----10----9----|
-------------------------------|--4-4-4-4-----------------|
-------------------------------|--------------------------|
--0-2-2-2-2----2-2-2-2-0-0-0-0-|--------------------------|


                                                                                
---------4------------|---------------------------5-5-|----------4-------------|
--------------4-------|-----------------------5-5-----|---------------4--------|
--6--------------6----|--7------------7-7-7-7---------|--6----6----------6--6--|
--6-------------------|--7----7-7-7-7-----------------|--6----6----------6--6--|
--4-------------------|--5----------------------------|--4----4----------4--4--|
----------------------|-------------------------------|------------------------|


                                                                
---------------------------5-5-|-------------------------------|
-----------------------5-5-----|-------------------------------|
--7------------7-7-7-7---------|--6----------6----------6------|
--7----7-7-7-7-----------------|--6----------6----------6------|
--5----------------------------|--4--4-4-4-4-4--4-4-4-4-4--4-4-|
-------------------------------|-------------------------------|


                                                                 
--------------------------------|-------------------------------|
--------------------------------|-------------------------------|
--------------------------------|-------------------------------|
--7----------9----------11------|--9----------9----------9------|
--5--5-5-5-5-7--7-7-7-7-9---9-9-|--7--7-7-7-7-7--7-7-7-7-7--7-7-|
--------------------------------|-------------------------------|


                                                                              
----------------------|---------------------------|--------------------------|
----------------------|---------------------------|--------------------------|
------5--5------------|---------------------------|--------------------------|
------5--5------------|--11----11/-6--6--6--6/-7--|--7--7--7/-9--9--9--9--9--|
--7-7-----------------|--9-----9/--4--4--4--4/-5--|--5--5--5/-7--7--7--7--7--|
----------------------|---------------------------|--------------------------|
            

comments powered by Disqus
↑ Back to top | Children Of Bodom Tabs for Bodom Beach Terror. Lyrics for acoustic guitar and electric guitar. Tablatures and chords are parodies/interpretations of the original songs. You may use it for private study, scholarship, research or language learning purposes only