» » »

Children 18 3, Even Sleeping Bass tabs (ver.1)

Artists:  A B C D E F G H I J K L M N O P Q R S T U V W X Y Z # 

Even Sleeping Bass tabs (ver.1)

Children 18 3 Tabs
 Rating:
4.2/5 (5 votes)
Even Sleeping lessons Tabs too difficult? Try these video lessons and learn fast
1
                =============================================================================
                         EVEN SLEEPING - Children 18:3
=============================================================================


Standard Tuning: EADG


Intro
G|-------------------|
D|-------------------|
A|-1-----------------|
E|----2--1--44444444-|

G|-------------------------|-----------------------------|
D|-------------------------|-----------------------------|
A|-1-111-------------------|-1-111-----------------6-4-6-|
E|-------2-222-1-111-4-444-|-------2-222-1-111-4-4-------|


Verse
G|-----------------|-----------------|-----------------|-----------------|
D|-----------------|---------6-------|-----------------|-4-------4---4-6-|
A|---8-6-8---8-6-8-|---8-6-8---8-6-8-|---4-6-4---4-6-4-|---6-4-6---6-----|x2
E|-6-------6-------|-6---------------|-4-------4-------|-----------------|


Chorus
G|----------|---------|----------|----------|
D|----------|---------|----------|----------|
A|-11111111-|---------|----------|----------|
E|----------|-2222222-|-11111111-|-44444444-|

G|----------|---------|----------|----------|
D|----------|---------|----------|----------|
A|-11111111-|---------|----------|---446644-|
E|----------|-2222222-|-11111111-|-44-------|


"Solo"
G|----------|---------|----------|----------|
D|----------|---------|----------|----------|
A|-11111111-|---------|----------|---446644-|
E|----------|-2222222-|-11111111-|-44-------|


Verse
Chorus


Bridge
G|----------|----------|------------------|------------------|
D|----------|----------|------------------|------------------|
A|-99999999-|-88888888-|-1111111111111111-|-1111111111111313-|  x6
E|----------|----------|------------------|------------------|
                        ^11th fret                       ^13th fret
 
G|----------|---------|----------|----------|
D|----------|---------|----------|----------|
A|-11111111-|---------|----------|----------|
E|----------|-2222222-|-11111111-|-44444444-|


Chorus x2
            
Submit corrections

comments powered by Disqus
↑ Back to top | Children 18 3 Bass for Even Sleeping. Lyrics for acoustic guitar and electric guitar. 1 Tablatures and chords are parodies/interpretations of the original songs. You may use it for private study, scholarship, research or language learning purposes only