» » »

Children 18 3, Even Sleeping Tabs (ver.2)

Artists:  A B C D E F G H I J K L M N O P Q R S T U V W X Y Z # 

Even Sleeping Tabs (ver.2)

Children 18 3 Tabs
 Rating:
4/5 (4 votes)
Even Sleeping lessons Tabs too difficult? Try these video lessons and learn fast
1
                -------------------------------------------------------------------------------
                             Even Sleeping - Children 18:3
-------------------------------------------------------------------------------

Tuning: standard
Intro Part 1
e|-----------------------------------------------------------------|
B|-----------------------------------------------------------------|
G|-----------------------------------------------------------------|
D|8--4--3--66666666------------------------------------------------|
A|8--4--3--66666666------------------------------------------------|
E|6--2--1--44444444------------------------------------------------|
Intro Part2........ (Guitar 1)
e|-------------------------------------------------------------------------|
B|-------------------------------------------------------------------------|
G|-------------------------------------------------------------------------|
D|-11p10-8--11p10-8--11p10-8--13-11-10-8-----------------------------------|
A|-------------------------------------------------------------------------|
E|-------------------------------------------------------------------------|
Intro Part 2(Guitar 2)
e|----------------------------------------------------------------------|
B|----------------------------------------------------------------------|
G|----------------------------------------------------------------------|
D|-88888888-44444444-33333333--66666666---------------------------------|
A|-88888888-44444444-33333333--66666666---------------------------------|
E|-66666666-22222222-11111111--44444444---------------------------------|
Verse 1
e|--------------------------------------------------------------------------|
B|--------------------------------------------------------------------------|
G|10-10-10-10-10-10-10-10----13-13-13-13-13-13-13-13-11-11-11-11-11-11-11-11|
D|11-11-11-11-11-11-11-11(x2)11-11-11-11-11-11-11-11-11-11-11-11-11-11-11-11|
A|-9--9-9--9--9--9--9--9----------------------------------------------------|
E|--------------------------------------------------------------------------|
Chorus 1
e|----------------------------------------------------------------------|
B|----------------------------------------------------------------------|
G|----------------------------------------------------------------------|
D|-88888888-44444444-33333333--66666666---------------------------------|
A|-88888888-44444444-33333333--66666666---------------------------------|
E|-66666666-22222222-11111111--44444444---------------------------------|
Chorus 1
e|----------------------------------------------------------------------|
B|----------------------------------------------------------------------|
G|----------------------------------------------------------------------|
D|-88888888-44444444-33333333--33333333---------------------------------|
A|-88888888-44444444-33333333--33333333---------------------------------|
E|-66666666-22222222-11111111--11111111---------------------------------|
Chorus 1
e|---------------------------------------------|
B|---------------------------------------------|
G|10-6--8-8-10--6-8-8--------------------------|
D|---------------------------------------------|
A|8--4--6-6--8--4-6-6--------------------------|
E|---------------------------------------------|
Interlude
e|------------------------------------------------------------------------|
B|------------------------------------------------------------------------|
G|------------------------------------------------------------------------|
D|-6s8-6h8p6-----6--------------------------------------------------------|
A|-----------6h8----8--6-8----4-3-----------------------------------------|
E|------------------------------------------------------------------------|
Verse 2
e|--------------------------------------------------------------------------|
B|--------------------------------------------------------------------------|
G|10-10-10-10-10-10-10-10----13-13-13-13-13-13-13-13-11-11-11-11-11-11-11-11|
D|11-11-11-11-11-11-11-11(x2)11-11-11-11-11-11-11-11-11-11-11-11-11-11-11-11|
A|-9--9-9--9--9--9--9--9----------------------------------------------------|
E|--------------------------------------------------------------------------|
Chorus 2
e|----------------------------------------------------------------------|
B|----------------------------------------------------------------------|
G|----------------------------------------------------------------------|
D|-88888888-44444444-33333333--66666666---------------------------------|
A|-88888888-44444444-33333333--66666666---------------------------------|
E|-66666666-22222222-11111111--44444444---------------------------------|
Chorus 2
e|----------------------------------------------------------------------|
B|----------------------------------------------------------------------|
G|----------------------------------------------------------------------|
D|-88888888-44444444-33333333--33333333---------------------------------|
A|-88888888-44444444-33333333--33333333---------------------------------|
E|-66666666-22222222-11111111--11111111---------------------------------|
Chorus 2
e|---------------------------------------------|
B|---------------------------------------------|
G|10-6--8-8-10--6-8-8--------------------------|
D|---------------------------------------------|
A|8--4--6-6--8--4-6-6--------------------------|
E|---------------------------------------------|
Bridge
e|--------------------------------------------------------------------------|
B|--------------------------------------------------------------------------|
G|10------------------------------------------------------------------------|
D|11-(x6)-------------------------------------------------------------------|
A|9-------6h8-8-8-6h8-8-8-10-10-10-10-11-11-10-6h8-8-10-10-10-11-10-1313b13b|
E|--------------------------------------------------------------------------|
Chorus 3
e|----------------------------------------------------------------------|
B|----------------------------------------------------------------------|
G|----------------------------------------------------------------------|
D|-88888888-44444444-33333333--66666666---------------------------------|
A|-88888888-44444444-33333333--66666666---------------------------------|
E|-66666666-22222222-11111111--44444444---------------------------------|
Chorus 3
e|----------------------------------------------------------------------|
B|----------------------------------------------------------------------|
G|----------------------------------------------------------------------|
D|-88888888-44444444-33333333--33333333---------------------------------|
A|-88888888-44444444-33333333--33333333---------------------------------|
E|-66666666-22222222-11111111--11111111---------------------------------|
Chorus 3
e|---------------------------------------------|
B|---------------------------------------------|
G|10-6--8-8-10--6-8-8--------------------------|
D|---------------------------------------------|
A|8--4--6-6--8--4-6-6--------------------------|
E|---------------------------------------------|
Ending (Guitar 1)
e|-------------------------------------------------------------------------|
B|-------------------------------------------------------------------------|
G|-------------------------------------------------------------------------|
D|-11p10-8--11p10-8--11p10-8--13-11-10-8-----------------------------------|
A|-------------------------------------------------------------------------|
E|-------------------------------------------------------------------------|
Ending (Guitar 2)
e|----------------------------------------------------------------------|
B|----------------------------------------------------------------------|
G|----------------------------------------------------------------------|
D|-88888888-44444444-33333333--66666666---6~----------------------------|
A|-88888888-44444444-33333333--66666666---6~----------------------------|
E|-66666666-22222222-11111111--44444444---4~----------------------------|

The other tab was missing a bunch of parts, so I decided to tab the song for you guys.
As always, feel free to correct.


************************************

| /   slide up
| \   slide down
| h   hammer-on
| p   pull-off
| ~   vibrato
| +   harmonic
| x   Mute note
| b   Bend
| pb  Pre-bend
| br  Bend release
| pbr Pre-bend release
| brb Bend release bend

************************************
            
Submit corrections

comments powered by Disqus
↑ Back to top | Children 18 3 Tabs for Even Sleeping. Lyrics for acoustic guitar and electric guitar. 1 Tablatures and chords are parodies/interpretations of the original songs. You may use it for private study, scholarship, research or language learning purposes only