» » »

Children 18 3, Cover Your Eyes Bass tabs (ver.1)

Artists:  A B C D E F G H I J K L M N O P Q R S T U V W X Y Z # 

Cover Your Eyes Bass tabs (ver.1)

Children 18 3 Tabs
 Rating:
4/5 (6 votes)
Cover Your Eyes lessons Tabs too difficult? Try these video lessons and learn fast
                =============================================================================
                        COVER YOUR EYES - Children 18:3
=============================================================================


Standard Tuning: EADG

Intro
G|-----------|-----------|----------|
D|-----------|-----------|----------|
A|-2-22------|-5-5-------|-2-22-----|
E|-------2-2-|-----5-555-|------2-2-|

G|-----------|----------|-----------|----------|
D|-----------|----------|-----------|----------|
A|-5-5-7-777-|-2-22-----|-5-5-------|----------|
E|-----------|------2-2-|-----5-555-|-55555552-|


Verse
G|----------|----------|----------|------------|
D|----------|----------|----------|------------|
A|-22222222-|-00000000-|-55555555-|-2222222222-|  x2
E|----------|----------|----------|------------|

G|---------|---------|---------|---------|---------|---------|-----------|
D|---------|---------|---------|---------|---------|---------|-----------|
A|-2-2-2-2-|-2-2-2-2-|-0-0-0-0-|-0-0-0-0-|---------|---------|-----------|
E|---------|---------|---------|---------|-2-2-2-2-|-2-2-2-2-|-333333333-|


Chorus
G|----------|----------|---------|---------|
D|----------|----------|---------|---------|
A|-22222222-|-55555555-|---------|---------|  x2
E|----------|----------|-3-3-3-3-|-2-2-2-2-|


Re-Intro
G|-----------|-----------|----------|----------|
D|-----------|-----------|----------|----------|
A|-2-22------|-5-5-------|-2-22-----|-5-5-7777-|
E|-------2-2-|-----5-555-|------2-2-|----------|


Verse
Chorus


Bridge
G|----------|----------|----------|----------|
D|----------|----------|----------|----------|
A|-22222222-|-22222222-|----------|----------|  x2
E|----------|----------|-00000000-|-00000000-|

G|----------|----------|----------|----------|
D|----------|----------|----------|----------|
A|-22222222-|-22222222-|-55555555-|-55555555-|
E|----------|----------|----------|----------|

G|----------|----------|----------|------------|
D|----------|----------|----------|--------4-9-|
A|-22222222-|-22222222-|-55555555-|-5555-7-----|
E|----------|----------|----------|------------|

G|---------|---------|---------|---------|---------|---------|-----------|
D|---------|---------|---------|---------|---------|---------|-----------|
A|-2-2-2-2-|-2-2-2-2-|-0-0-0-0-|-0-0-0-0-|---------|---------|-----------|
E|---------|---------|---------|---------|-2-2-2-2-|-2-2-2-2-|-333333333-|


Chorus
G|----------|----------|---------|---------|
D|----------|----------|---------|---------|
A|-22222222-|-55555555-|---------|---------|  x4
E|----------|----------|-3333333-|-2222222-|


Outro
G|-----------|-----------|----------|
D|-----------|-----------|----------|
A|-2-22------|-5-5-------|-2-22-----|
E|-------2-2-|-----5-555-|------2-2-|

G|-----------|----------|-----------|----------|
D|-----------|----------|-----------|----------|
A|-5-5-7-777-|-2-22-----|-5-5-------|----------|
E|-----------|------2-2-|-----5-555-|-55555552-|


It's not 100% correct, but it's pretty close.
            
Submit corrections

comments powered by Disqus
↑ Back to top | Children 18 3 Bass for Cover Your Eyes. Lyrics for acoustic guitar and electric guitar. Tablatures and chords are parodies/interpretations of the original songs. You may use it for private study, scholarship, research or language learning purposes only