» » »

Children 18 3, Cover Your Eyes Tabs (ver.1)

Artists:  A B C D E F G H I J K L M N O P Q R S T U V W X Y Z # 

Cover Your Eyes Tabs (ver.1)

Children 18 3 Tabs
Rating:
3/5 (1 vote)
Cover Your Eyes lessons Tabs too difficult? Try these video lessons and learn fast
                Band: Children 18:3
Tuning: Drop D

Intro
|------------------------------------------------------------|
|------------------------------------------------------------|
|------------------------------------------------------------|
|---10p8h10-------8-10-13-12b--10p8h10-----------------------|
|----------10--10---------------------10---------------------|
|------------------------------------------------------------|

|------------------------------------------------------------|
|------------------------------------------------------------|
|------------------------------------------------------------|
|---10p8h10-------8-10-13-12b---10---------------------------|
|----------10--10--------------------------------------------|
|------------------------------------------------------------|

Verse 1
I think it's just bass, drums, and vocals playing but guitar 1 jumps in for a sec half 
through the verse and plays this. (Listen for when to play.)
|------------------------------------------------------------|
|------------------------------------------------------------|
|------------------------------------------------------------|
|------6-x-x-6-x-6-x-10--------------------------------------|
|------6-x-x-6-x-6-x-10--------------------------------------|
|------6-x-x-6-x-6-x-10--------------------------------------|

Pre-chorus
|--------------------------------------------------------------------------|
|--------------------------------------------------------------------------|
|--------------------------------------------------------------------------|
|-10-10-10-10-10-10-10-10-8-8-8-8-8-8-8-8-7-7-7-7-7-7-7-7-6666666666666666-|
|-10-10-10-10-10-10-10-10-8-8-8-8-8-8-8-8-7-7-7-7-7-7-7-7-6666666666666666-|
|-10-10-10-10-10-10-10-10-8-8-8-8-8-8-8-8-7-7-7-7-7-7-7-7-6666666666666666-|

Chorus
(Cover your eyes...)
|----------------------------------------|
|----------------------------------------|
|----------------------------------------|
|--10------13------6-6-6-6-3-3-3-3-------| x2
|--10(x8)--13(x8)--6-6-6-6-3-3-3-3-------|
|--10------13------6-6-6-6-3-3-3-3-------|

|------------------------------------------------------------|
|------------------------------------------------------------|
|------------------------------------------------------------|
|---10p8h10-------8-10-13-12b--10p8h10-----------------------|
|----------10--10---------------------10---------------------|
|------------------------------------------------------------|

Verse 2
|------------------------------------------------------------|
|------------------------------------------------------------|
|------------------------------------------------------------|
|------6-x-x-6-x-6-x-10--------------------------------------|
|------6-x-x-6-x-6-x-10--------------------------------------|
|------6-x-x-6-x-6-x-10--------------------------------------|

Pre-chorus
|--------------------------------------------------------------------------|
|--------------------------------------------------------------------------|
|--------------------------------------------------------------------------|
|-10-10-10-10-10-10-10-10-8-8-8-8-8-8-8-8-7-7-7-7-7-7-7-7-6666666666666666-|
|-10-10-10-10-10-10-10-10-8-8-8-8-8-8-8-8-7-7-7-7-7-7-7-7-6666666666666666-|
|-10-10-10-10-10-10-10-10-8-8-8-8-8-8-8-8-7-7-7-7-7-7-7-7-6666666666666666-|

Chorus
|----------------------------------------|
|----------------------------------------|
|----------------------------------------|
|--10------13------6-6-6-6-3-3-3-3-------| x2
|--10(x8)--13(x8)--6-6-6-6-3-3-3-3-------|
|--10------13------6-6-6-6-3-3-3-3-------|

Bridge
|----------------------------------------|
|----------------------------------------|
|----------------------------------------|
|-6------3-------6-------3---------------|
|-6(x16)-3-(x16)-6-(x16)-3-(x16)---------|
|-6------3-------6-------3---------------|

|---------------------------------------------------------------------|
|---------------------------------------------------------------------|
|---------------------------------------------------------------------|
|-6-------8------10------8------10-10-10-10-8-8-8-8-7-7-7-7-6-6-6-6-5-|
|-6(x16)--8(x16)-10(x16)-8(x16)-10-10-10-10-8-8-8-8-7-7-7-7-6-6-6-6-5-|
|-6-------8------10------8------10-10-10-10-8-8-8-8-7-7-7-7-6-6-6-6-5-|

Chorus
|----------------------------------------|
|----------------------------------------|
|----------------------------------------|
|--10------13------6666666633333333------| x3
|--10(x8)--13(x8)--6666666633333333------|
|--10------13------6666666633333333------|

|----------------------------------------|
|----------------------------------------|
|----------------------------------------|
|--10------13------6-6-6-6-3-3-3-3-------|
|--10(x8)--13(x8)--6-6-6-6-3-3-3-3-------|
|--10------13------6-6-6-6-3-3-3-3-------|

Outro
|------------------------------------------------------------|
|------------------------------------------------------------|
|------------------------------------------------------------|
|---10p8h10-------8-10-13-12b--10p8h10-----------------------|
|----------10--10---------------------10---------------------|
|------------------------------------------------------------|

|------------------------------------------------------------|
|------------------------------------------------------------|
|------------------------------------------------------------|
|---10p8h10-------8-10-13-12b---10---------------------------|
|----------10--10--------------------------------------------|
|------------------------------------------------------------|

Great song! Enjoy the tab!
            
Submit corrections

comments powered by Disqus
↑ Back to top | Children 18 3 Tabs for Cover Your Eyes. Lyrics for acoustic guitar and electric guitar. Tablatures and chords are parodies/interpretations of the original songs. You may use it for private study, scholarship, research or language learning purposes only