» » »

Chico Sci, Amen Tabs (ver.1)

Artists:  A B C D E F G H I J K L M N O P Q R S T U V W X Y Z # 

Amen Tabs (ver.1)

Chico Sci Tabs
 Rating:
4/5 (4 votes)
Amen lessons Tabs too difficult? Try these video lessons and learn fast
1
                AMEN 
CHICOSCI

SUBMITTED BY BHOVOIORIAS


LEGEND:

/ or \   - slide up or down
p        - pull off
h      - hammer on
p.m. --- - palm mute
b        - bend

Tuning: Tune guitar whole step down (DGCFAD) then drop d. 

Intro:
D ---------------- -----------------------    ---------------
A ---------------- -----------------------    ---------------
F ---------------- -----------------------14x ---------------
C ---------------- -----------------------    ---------------
G -12h13-0-11h12-- 0-12h13-12h13-0-11h12--    0-12h13-12h13--
C ---------------- -----------------------    ---------------
p.m.     -         -             -            -

D --------- -------------    -----------
A --------- -------------    -----------
F --------- -------------14x -----------
C --7h8-6-- --6h7-7h8-6--    --6h7-7h8--
G --7h8-6-- --6h7-7h8-6--    --6h7-7h8--
C --7h8-6-- --6h7-7h8-6--    --6h7-7h8--

Verse:
D ---------------- -----------------------    ---------------
A ---------------- -----------------------    ---------------
F ---------------- -----------------------14x ---------------
C ---------------- -----------------------    ---------------
G -12h13-0-11h12-- 0-12h13-12h13-0-11h12--    0-12h13-12h13--
C ---------------- -----------------------    ---------------
p.m.     -         -             -            -

Pre-Chorus:         Chorus:
D ----------   ---- ---------------------------
A ----------   ---- ---------------------------
F ----------7x ---- ---------------------------4x
C --8--6-7--   ---- ---------------------------
G --8--6-7--   -8-- ---------------------------
C --8--6-7--   -8-- --0--00-00-00-00-00-00-00--
p.m.                     -  -  -  -  -  -  -

Interlude:
D ---------   --------
A ---------   --------
F ---------8x --------8x
C ---------   -6-7-8--
G ---------   -6-7-8--
C --6-7-8--   -6-7-8--

Verse2:
D ---------------- -----------------------    ---------------
A ---------------- -----------------------    ---------------
F ---------------- -----------------------14x ---------------
C ---------------- -----------------------    ---------------
G -12h13-0-11h12-- 0-12h13-12h13-0-11h12--    0-12h13-12h13--
C ---------------- -----------------------    ---------------
p.m.     -         -             -            -

(repeat pre-chorus & chorus)

D-------------
A-------------
F-------------8x
C--6h7-7h8-6-- 
G--6h7-7h8-6-- 
C--6h7-7h8-6-- 

D ---------    ---------
A ---------    ---------
F ---------8x  ---------8x
C ---------    --0-1-2--
G ---------    --0-1-2--
C --0-1-2--    --0-1-2--

(repeat chorus)

_end_
            
Submit corrections

comments powered by Disqus
↑ Back to top | Chico Sci Tabs for Amen. Lyrics for acoustic guitar and electric guitar. 1 Tablatures and chords are parodies/interpretations of the original songs. You may use it for private study, scholarship, research or language learning purposes only