» » »

Chicosci, Manila Teenage Death Squad Tabs (ver.1)

Artists:  A B C D E F G H I J K L M N O P Q R S T U V W X Y Z # 

Manila Teenage Death Squad Tabs (ver.1)

Chicosci Tabs
Rating:
3/5 (2 votes)
Manila Teenage Death Squad lessons Tabs too difficult? Try these video lessons and learn fast
                                              Manila Teenage Death Squad
                                     Chicosci
                                     Chicosci




I Like to greet to ganda_qw kasi sobrang galing nya..Walang ibang magawa kundi mang okray!
Hindi mo malaman kung na iingit lang talaga.Wala kasing perfect na tao dba.Kaya kung ako
dude maglinis kan*lang ng banyo nyo para may kwenta ka sa mundo!!! ^_^ 



Intro part 1:

Guitar 1:
e|------|
B|------|
G|------|
D|--9~--|
A|------|
D|------|

Guitar 2:
e|-------------------------------|
B|-------------------------------|
G|-11~---------------------------|
D|--9~-----4---------------------|
A|--9~--2----5-5-5-5/7/10--2~----|
D|--9~~--------------------------|



Intro part 2:
Guitar 1:
e|--------------------------------------------------------|
B|--------------------------------------------------------|
G|---11------------14b-11b~---11-------------14b----------| 
D|-9----9--7----9-----------9----9--7----9----------------| 2x
A|-----------10-----------------------10-----------12b~---|
D|--------------------------------------------------------|

Guitar 2:
e|--------------------------------------------------------------|
B|--------------------------------------------------------------|
G|-----------777/999/121212---999\111111\444---777/999/121212---| 
D|---4-------xxx/xxx/-x-x-x---xxx\-x-x-x\xxx---xxx/xxx/-x-x-x---| 2x
A|-2---5-5-5-555/777/101010---777\-9-9-9\222---555/777/101010---|
D|--------------------------------------------------------------|




Verse 1:

Bass:
G|------------------------------|
D|------------------------------| 5x
A|------------------------------| 
D|--99999-55555-22222222--------|


Guitar 1: Enters at the 3rd time
e|---------------------------------|     
B|---------------------------------| 
G|-1111111111--777777--444444------|  2x
D|--9-9-9-9-9--555555--222222------| 
A|--9-9-9-9-9--555555--222222------|      
D|--9-9-9-9-9--555555--222222------|      

Guitar 2:
e|---------------------------------|
B|---------------------------------|
G|--77777-99999-12121212121212-----| 2x
D|--xxxx--xxxxx--x-x-x-x-x-x-x-----|
A|--55555-77777-10101010101010-----|
D|---------------------------------|


Both Guitars:
e|--------------|     
B|--------------| 
G|-11--7--4~----|  
D|--9--5--2~----| 
A|--9--5--2~----|      
D|--9--5--2~----|      


Chorus:

Guitar 1:
e|--------------------------------------------------------|
B|--------------------------------------------------------|
G|---11------------14b-11b~---11-------------14b----------| 
D|-9----9--7----9-----------9----9--7----9----------------| 2x
A|-----------10-----------------------10-----------12b~---|
D|--------------------------------------------------------|

Guitar 2:
e|--------------------------------------------------------------|
B|--------------------------------------------------------------|
G|-----------777/999/121212---999\111111\444---777/999/121212---| 
D|---4-------xxx/xxx/-x-x-x---xxx\-x-x-x\xxx---xxx/xxx/-x-x-x---| 2x
A|-2---5-5-5-555/777/101010---777\-9-9-9\222---555/777/101010---|
D|--------------------------------------------------------------|



Verse 2:No Guitar


Repeat Chorus:


Bridge part 1:
Guitar 1:
e|--------------------------------|
B|--------------------------------|
G|-5555555-555555-555555-555555---|
D|-5555555-555555-555555-555555---|
A|-3333333-333333-333333-333333---|
D|--------------------------------|

Guitar 2:
e|------------------------------------------------|     
B|------------------------------------------------|      
G|-555/777/999/121212---555/777/999/121212--------|  2x
D|-xxx/xxx/xxx/-x-x-x---xxx/xxx/xxx/-x-x-x--------| 
A|-333/555/777/101010---333/555/777/101010--------|    
D|------------------------------------------------|

(Continuation)
e|-----------------------------------|
B|-----------------------------------|
G|--16b-16b-14b-14b-12b-12b-12\\-----|
D|-----------------------------------|
A|-----------------------------------|
D|-----------------------------------|


Bridge part 2:

Bass:
G|---------|--------|--------|---------|
D|---------|--------|--------|---------|
A|---------|--------|--------|---------|
D|--99999--|--------|--------|---------|

Guitar 1:
e|---------|--------|--------|---------|
B|---------|--------|--------|---------|
G|---------|--------|--44444-|---------|
D|---------|--------|--22222-|---------|
A|---------|--------|--22222-|---------|
D|---------|--------|--22222-|---------|

Guitar 2:
e|---------|--------|--------|---------|
B|---------|--------|--------|--99999--|
G|---------|--7777--|--------|--xxxxx--|
D|---------|--5555--|--------|--66666--|
A|---------|--5555--|--------|---------|
D|---------|--5555--|--------|---------|



Repeat Chorus 2x


Last Chord:

Guitar 1:
e|--------|
B|--------|
G|--11----|
D|---9----|
A|---9----|
D|---9----|

Guitar 2:
e|--------|
B|--------|
G|---7----|
D|---x----|
A|---9----|
D|--------|


End
            
Submit corrections

comments powered by Disqus
↑ Back to top | Chicosci Tabs for Manila Teenage Death Squad. Lyrics for acoustic guitar and electric guitar. Tablatures and chords are parodies/interpretations of the original songs. You may use it for private study, scholarship, research or language learning purposes only