» » »

Chicago, I'm A Man Bass tabs (ver.1)

Artists:  A B C D E F G H I J K L M N O P Q R S T U V W X Y Z # 

I'm A Man Bass tabs (ver.1)

Chicago Tabs
 Rating:
4/5 (4 votes)
I'm A Man lessons Tabs too difficult? Try these video lessons and learn fast
                

  Gtr I
|-----------------------------------|----------------|
|-----------------------------------|----------------|
|---0-3---0-3---0-3-3-3---0-3-3-x-3-|---0-3-3-x-3----|
|-3-----3-----3---------3-----------|-3--------------|


|-----------------|-----------------|------|
|-----------------|-----------------|------|
|---0-3-3-3---0-3-|-3-x-3---0-3-3-x-|-3----|
|-3---------3-----|-------3---------|------|


|-------------------------------------|
|-------------------------------------|
|-/6-6-6-6-6-6-6-6-5-5-5-5-4-4-4-4----|
|-------------------------------------|


|-----------------|-----------------|------|
|-----------------|-----------------|------|
|---0-3-3-3---0-3-|-3-x-3---0-3-3-x-|-3----|
|-3---------3-----|-------3---------|------|


There ya go... that is about 99% correct. Just listen to the song for timing.
            
Submit corrections

comments powered by Disqus
↑ Back to top | Chicago Bass for I'm A Man. Lyrics for acoustic guitar and electric guitar. Tablatures and chords are parodies/interpretations of the original songs. You may use it for private study, scholarship, research or language learning purposes only