» » »

Chicago, Colour My World Tabs (ver.1)

Artists:  A B C D E F G H I J K L M N O P Q R S T U V W X Y Z # 

Colour My World Tabs (ver.1)

Chicago Tabs
 Rating:
4.6/5 (9 votes)
Colour My World lessons Tabs too difficult? Try these video lessons and learn fast
1
                ----------------------------------------------------------------------------
----------------------------------------------------------------------------

Tuning: Standard (E A D G B e)

Intro
e|-------0--------------0----------|
B|-----1---1----------1---1--------|
G|---2-------2------2-------2------|
D|-3--------------3----------------|
A|---------------------------------|
E|---------------------------------|

e|-------0--------------0--------------0--------------0-------|
B|-----1---1----------1---1----------1---1----------1---1-----|
G|---2-------2------2-------2------2-------2------2-------2---|
D|-3--------------3--------------2--------------2-------------|
A|------------------------------------------------------------|
E|------------------------------------------------------------|

e|-------1--------------1--------------1--------------1-------|
B|-----3---3----------3---3----------3---3----------3---3-----|
G|---3-------3------3-------3----0-3-------3----0-3-------3---|
D|-3--------------3-------------------------------------------|
A|------------------------------------------------------------|
E|------------------------------------------------------------|

e|-------3--------------3--------------1--------------1-------|
B|-----4---4----------4---4----------2---2----------2---2-----|
G|---5-------5------5-------5------3-------3------3-------3---|
D|-6--------------6--------------4--------------4-------------|
A|------------------------------------------------------------|
E|------------------------------------------------------------|

e|-------0--------------0--------------2--------------2-------|
B|-----1---1----------1---1----------3---3----------3---3-----|
G|---2-------2------2-------2------4-------4------4-------4---|
D|-4--------------4--------------5--------------5-------------|
A|------------------------------------------------------------|
E|------------------------------------------------------------|

e|-------1--------------1--------------0--------------0-------|
B|-----2---2----------2---2----------1---1----------1---1-----|
G|-0-3-------3----0-3-------3----0-3-------3----0-3-------3---|
D|------------------------------------------------------------|
A|------------------------------------------------------------|
E|------------------------------------------------------------|

e|-------0--------------0--------------0----------------------|
B|-----1---1----------1---1----------1---1---------3------1---|
G|-0-3-------3----0-3-------3------2-------2-----3------3-----|
D|-------------------------------3-------------3------2-------|
A|------------------------------------------------------------|
E|------------------------------------------------------------|

Verse
  As time goes on...            I Realize...
e|-------0--------------0--------------0--------------0-------|
B|-----1---1----------1---1----------1---1----------1---1-----|
G|---2-------2------2-------2------2-------2------2-------2---|
D|-3--------------3--------------2--------------2-------------|
A|------------------------------------------------------------|
E|------------------------------------------------------------|

  Just what you mean...              To me...
e|-------1--------------1--------------1--------------1-------|
B|-----3---3----------3---3----------3---3----------3---3-----|
G|---3-------3------3-------3----0-3-------3----0-3-------3---|
D|-3--------------3-------------------------------------------|
A|------------------------------------------------------------|
E|------------------------------------------------------------|

   And now...                 Now that you´re near...
e|-------3--------------3--------------1--------------1-------|
B|-----4---4----------4---4----------2---2----------2---2-----|
G|---5-------5------5-------5------3-------3------3-------3---|
D|-6--------------6--------------4--------------4-------------|
A|------------------------------------------------------------|
E|------------------------------------------------------------|

  Promise your love...           That I´ve waited to share...
e|-------0--------------0--------------2--------------2-------|
B|-----1---1----------1---1----------3---3----------3---3-----|
G|---2-------2------2-------2------4-------4------4-------4---|
D|-4--------------4--------------5--------------5-------------|
A|------------------------------------------------------------|
E|------------------------------------------------------------|

   And dreams...            Of our moments together...
e|-------1--------------1--------------0--------------0-------|
B|-----2---2----------2---2----------1---1----------1---1-----|
G|-0-3-------3----0-3-------3----0-3-------3----0-3-------3---|
D|------------------------------------------------------------|
A|------------------------------------------------------------|
E|------------------------------------------------------------|

   Colour my World...             With hopes...  of loving you...
e|-------0--------------0--------------0----------------------|
B|-----1---1----------1---1----------1---1---------3------1---|
G|-0-3-------3----0-3-------3------2-------2-----3------3-----|
D|-------------------------------3-------------3------2-------|
A|------------------------------------------------------------|
E|------------------------------------------------------------|

Solo (can play the entire Intro again while the solo goes on)
e|------------------------------------------------------------------|
B|-------------------------------------------------15~--------------|
G|-10-12-14~---12-10-14~---14-12-10-14~---14-15-17------17-15-------|
D|------------------------------------------------------------17~---|
A|------------------------------------------------------------------|
E|------------------------------------------------------------------|

e|------------------------------------------------------------------|
B|----15-13~---16-13------------------------------------------------|
G|-------------------13/15~---15-13----14~---14---------------------|
D|-17-------------------------------16----------12h14-16/17-19/21~--|
A|------------------------------------------------------------------|
E|------------------------------------------------------------------|

e|-----------------------------------------------|
B|-----------------------------------------------|
G|----------------------------12-13-15/17~-------|
D|-19-17\16-14-12/13~---13-15--------------17~---|
A|-----------------------------------------------|
E|-----------------------------------------------|

e|-----------15-13-12-12\10----------------------|
B|--17-15-13----------------13p11\10-------------|
G|-----------------------------------12p9h10~----|
D|-----------------------------------------------|
A|-----------------------------------------------|
E|-----------------------------------------------|

e|-----------------------------------------|-------0------------). Last Chord
B|----------10-11-10-11-10h11p10h11p10~~~--|-----2--------------).(If playing the
G|-10~-12~---------------------------------|---3----------------).whole intro while
D|-----------------------------------------|-4------------------).the solo
A|-----------------------------------------|---------|goes on.--).
E|-----------------------------------------|--------------------).


| /  slide up
| \  slide down
| h  hammer-on
| p  pull-off
| ~  vibrato

It´s a really nice song, and not too hard to play... Just listen it, and find out the 
and that´s it... the solo is not hard at all, just pay attention to the song... Enjoy 
HeAd RuLeS!!!
==========================================================================
            
Submit corrections

comments powered by Disqus
↑ Back to top | Chicago Tabs for Colour My World. Lyrics for acoustic guitar and electric guitar. 1 Tablatures and chords are parodies/interpretations of the original songs. You may use it for private study, scholarship, research or language learning purposes only